» » »

Young Knives, Here Comes The Rumour Mill Tabs (ver.2)

Artists:  A B C D E F G H I J K L M N O P Q R S T U V W X Y Z # 

Here Comes The Rumour Mill Tabs (ver.2)

Young Knives Tabs
 Rating:
4/5 (11 votes)
Here Comes The Rumour Mill lessons Tabs too difficult? Try these video lessons and learn fast
1
                
Brilliant band and a brilliant song. Did my best so hope you like it. Dont forget to 
and comment.....


Intro:              (2nd time only)
e:-----------------------------|
B:-----------------------------|
G:-------------------(1/22/1)--|   X2
D:-----------876-876-----------|
A:--5435-543-------------------|
E:-----------------------------|


Verse 1: - Part One
e:---------------------------------------|
B:---------------------------------------|
G:---------------------------------------| x3
D:-----------------55555555/77/55/33/22--|
A:-5555555555555555----------------------|
E:---------------------------------------|

Verse: - Part two                  G7
e:-----------------------------------------|
B:-----------------------------------------|
G:---------------------------------444-----|  x1
D:-----------------55555555/77/55--333-----|
A:-5555555555555555----------------555-----|
E:---------------------------------333-----|

Chorus:-Part One
     A7     Bm      G7
e:-----------------------|
B:-----------------------|
G:-6666666-/-777-/-4444--|  x2
D:-5555555-/-999-/-3333--|
A:-7777777-/-999-/-5555--|
E:-5555555-/-777-/-3333--|

Chorus:-Part Two
     A7     Bm      G7
e:---------------------------------------|
B:---------------------------------------|
G:-6666666-/-777-/-44--4444444444444444--|  x1
D:-5555555-/-999-/-33--3333333333333333--|
A:-7777777-/-999-/-55--5555555555555555--|
E:-5555555-/-777-/-33--3355555555555555--|

Verse 2:
e:---------------------------------------|
B:---------------------------------------|
G:---------------------------------------|  x3
D:-----------------55555555/77/55/33/22--|
A:-5555555555555555----------------------|
E:---------------------------------------|

Bridge:
    A7    Bm    G7    A7  (2nd time only)
e:--5-----7-----3-----5-------------|
B:--5-----7-----3-----5-------------|
G:--6-----7-----4-----6------(444)--|  x2
D:--5-----9-----3-----5------(333)--|
A:--7-----9-----5-----7------(555)--|
E:--5-----7-----3-----5------(333)--|

Chorus:-Part One
     A7     Bm      G7
e:-----------------------|
B:-----------------------|
G:-6666666-/-777-/-4444--|  x4
D:-5555555-/-999-/-3333--|
A:-7777777-/-999-/-5555--|
E:-5555555-/-777-/-3333--|

Chorus:-Part Two
     A7     Bm      G7
e:---------------------------------------|
B:---------------------------------------|
G:-6666666-/-777-/-44--4444444444444444--|  x1
D:-5555555-/-999-/-33--3333333333333333--|
A:-7777777-/-999-/-55--5555555555555555--|
E:-5555555-/-777-/-33--3355555555555555--|


Solo:
e:---------------------5/7--------------------------------------|
B:-----------------5/7----5/7---------------------5/7-----------|
G:-------------5/7-----------5/7---------------5/7---5/7--------|  X1
D:---------5/7------------------5/7-----5/7-------------5/7-----|
A:-----5/7--------------------------5/7-----5/7------------5/7--|
E:-5/7----------------------------------------------------------|

Verse 3:
e:---------------------------------------|
B:---------------------------------------|
G:---------------------------------------| x3
D:-----------------55555555/77/55/33/22--|
A:-5555555555555555----------------------|
E:---------------------------------------|

Bridge:
    A7    Bm    G7    A7  (2nd time only)
e:--5-----7-----3-----5-------------|
B:--5-----7-----3-----5-------------|
G:--6-----7-----4-----6------(444)--|  x2
D:--5-----9-----3-----5------(333)--|
A:--7-----9-----5-----7------(555)--|
E:--5-----7-----3-----5------(333)--|


Chorus:
     A7     Bm      G7
e:-----------------------|
B:-----------------------|
G:-6666666-/-777-/-4444--|  x3
D:-5555555-/-999-/-3333--|
A:-7777777-/-999-/-5555--|
E:-5555555-/-777-/-3333--|

Bridge:
e:------------------|
B:------------------|
G:------------------|  X2
D:--------------6---|
A:-55-577-755-57-5--|
E:------------------|


Chorus:-Part One
     A7     Bm      G7
e:-----------------------|
B:-----------------------|
G:-6666666-/-777-/-4444--|  x5
D:-5555555-/-999-/-3333--|
A:-7777777-/-999-/-5555--|
E:-5555555-/-777-/-3333--|

Chorus:-Part Two
     A7     Bm      G7
e:---------------------|
B:---------------------|
G:---4444444444444444--|  x5
D:---3333333333333333--|
A:---5555555555555555--|
E:---3355555555555555--|

Outro:
    G7   A7   Bm   G7
e:---------------------|
B:---------------------|
G:--4----6----7----44--|  x1
D:--3----5----9----33--|
A:--5----7----9----55--|
E:--3----5----7----33--|
            
Submit corrections

comments powered by Disqus
↑ Back to top | Young Knives Tabs for Here Comes The Rumour Mill. Lyrics for acoustic guitar and electric guitar. 1 Tablatures and chords are parodies/interpretations of the original songs. You may use it for private study, scholarship, research or language learning purposes only