» » »

Young Knives, Here Comes The Rumour Mill Tabs (ver.1)

Artists:  A B C D E F G H I J K L M N O P Q R S T U V W X Y Z # 

Here Comes The Rumour Mill Tabs (ver.1)

Young Knives Tabs
 Rating:
3.5/5 (8 votes)
Here Comes The Rumour Mill lessons Tabs too difficult? Try these video lessons and learn fast
                Here Comes the Rumour Mill

The Young Knives

ace song, fairly easy too. not too sure about the lyrics in some places
but you get the idea

standard tuning : EADGBE

h = hammer on
p = pull off
V = vibrato
PM= palm mute

chords:
D5 = x577xx
F5 = x8 10 10xx
C5 = x355xx
G5 = 355xxx
A5 = x022xx  or 577xxx
A#5= 688xxx  or x133xx
B5 = x244xx

intro:
                                                         continue hammer ons
                                                         and pull offs until
                                                         singing starts
e|-------------------------------------------------------------------------|
b|-------------------------------------------------------------------------|
g|-------------------------------------------------------------------------|
d|-----------------8-6-5-8-6-5-----------------8-6-5-8-6-5h6p5h6p5h6p5h6p5-|
a|--5-4-3-5--5-4-3--------------5-4-3-5--5-4-3-----------------------------|
E|-------------------------------------------------------------------------|

alternatively:

e|-------------------------------------------------------------------------|
b|-------------------------------------------------------------------------|
g|-----------------3-1-0-3-1-0-----------------3-1-0-3-1-0h1p0h1p0h1p0h1p0-|
d|-------------------------------------------------------------------------|
a|--5-4-3-5--5-4-3--------------5-4-3-5--5-4-3-----------------------------|
E|-------------------------------------------------------------------------|

verse:

         here comes the rumour mill              and i'm not  e-ven
e|-------------------------------------------------------------------|
b|-------------------------------------------------------------------|
g|-------------------------------------------------------------------|
d|-------------------------------------------------------------------|
a|--3h4h5-5----5-----5---5--5---5----5-5-5-5------5---5---6---5--6---|
E|-------------------------------------------------------------------|

    trying
e|--------------------------------------------|
b|--------------------------------------------|
g|--------------------------------------------|
d|---7--5-5-5-5-5-5-5-7-3-3-3-3-2-2-2---------|
a|--------------------------------------------|
E|--------------------------------------------|

       it's a game of cat and mouse     but i can't tell who's
e|-------------------------------------------------------------|
b|-------------------------------------------------------------|
g|-------------------------------------------------------------|
d|-------------------------------------------------------------|
a|--5-5-5---5--5---5---5---5----5---5-5--5--5--6-----5----6----|
E|-------------------------------------------------------------|

   lying
e|--------------------------------------------|
b|--------------------------------------------|
g|--------------------------------------------|
d|--------------------------------------------|
a|-7--5-5-5-5-5-5-5-7-3-3-3-3-9-9-9-----------|
E|--------------------------------------------|

you can tell in the way that i walk that i am frightened
                                                             F5 F5 F5
they're bearing down on me, what have i done to spite them?

chorus:

D5                             F5         C5
 they keep on lying like their one really matters

G5                             D5          C5
 and then those lies they just scatter and scatter

D5                                F5             C5
 can't hear my thoughts above the sound of their chatter

G5
they keep on lying to you
G5
they keep on lying to you

verse: same as first

here comes the vangar? man, it seems he is delirious
he keeps mocking me, i can't tell if he's serious
have you seen how he jokes and he smiles?
yet he sleeps like a child

   tall tales, cleeks? and whis---pers
e|---------------------------------------------------------|
b|---------------------------------------------------------|
g|-7-----------5-----------7------5------------------------|    chords here
d|-7-----------5-----------7------5------------------------|    strummed
a|-5-----------3-----------5------3----0-0--0-0--0-0-------|    quite softly
E|---------------------------------------------------------|

   tell of     secret      kiss---es
e|---------------------------------------------------------------|
b|---------------------------------------------------------------|
g|-7-----------5-----------7------5--------------------10-10-10--|
d|-7-----------5-----------7------5--------------------10-10-10--|
a|-5-----------3-----------5------3----0-0--0-0--0-0---8--8--8---|
E|---------------------------------------------------------------|

chorus:

D5                             F5         C5
 they keep on lying like their one really matters

G5                             D5          C5
 and then those lies they just scatter and scatter

D5                             F5         C5
 they keep on lying like their one really matters

G5                             D5          C5
 and then those lies they just scatter and scatter

D5                                F5             C5
 can't hear my thoughts above the sound of their chatter

G5
they keep on lying to you
G5
they keep on lying to you

solo:
e|-----------------------------5p4p3-------------|
b|-----------------------3h4h5-------5p4p3-------|
g|-----------------3h4h5-------------------5p4p3-|
d|-----------3h4h5-------------------------------|
a|--3--3h4h5-------------------------------------|
E|-----------------------------------------------|


e|-----------------------------------------|
b|---------------------5p4p3-----3h4h5-----|
g|------3h4h5-----3h4h5-----5p4p3------3v--|
d|-3h4h5-----3h4h5-------------------------|
a|-----------------------------------------|
E|-----------------------------------------|


verse:

here comes a bitter pill, but i don't think i'll take it
like you i'm scared of everything they're saying
but i know there is no other way, there is no other way


   tall tales, cleeks? and whis---pers
e|---------------------------------------------------------|
b|---------------------------------------------------------|
g|-7-----------5-----------7------5------------------------|    chords here
d|-7-----------5-----------7------5------------------------|    strummed
a|-5-----------3-----------5------3----0-0--0-0--0-0-------|    quite softly
E|---------------------------------------------------------|

   tell of     secret      kiss---es
e|---------------------------------------------------------------|
b|---------------------------------------------------------------|
g|-7-----------5-----------7------5--------------------10-10-10--|
d|-7-----------5-----------7------5--------------------10-10-10--|
a|-5-----------3-----------5------3----0-0--0-0--0-0---8--8--8---|
E|---------------------------------------------------------------|

chorus:

D5                             F5         C5
 they keep on lying like their one really matters

G5                             D5          C5
 and then those lies they just scatter and scatter

D5                                F5             C5
 can't hear my thoughts above the sound of their chatter

G5
and you'll be sorry when you..

A5 A5  B5 B5 B5  A5 A5 A5  B5 B5 B5  A5 A5 A5  B5 B5 B5  A5 A5 A5  B5 B5 B5


chorus:

D5                             F5         C5
 they keep on lying like their one really matters

G5                             D5          C5
 and then those lies they just scatter and scatter

D5                             F5         C5
 they keep on lying like their one really matters

G5                             D5          C5
 and then those lies they just scatter and scatter

D5                                F5             C5
 can't hear my thoughts above the sound of their chatter

G5
they keep on lying to you
x9: let ring G5 on first 3, PM G5 on 4th, strum G5 normally on the rest

G5
and you'll be sorry when you

F5   D5 F5   A#5
come to your senses
            
Submit corrections

comments powered by Disqus
↑ Back to top | Young Knives Tabs for Here Comes The Rumour Mill. Lyrics for acoustic guitar and electric guitar. Tablatures and chords are parodies/interpretations of the original songs. You may use it for private study, scholarship, research or language learning purposes only