>
 >
Bones 1

Bones 1 Guitar Tabs

Young Guns - Bones 1 chords, tabs, tablatures, lyrics

Guitar lessons | Add/correct | Request | Top 50 tabs Artists:  A B C D E F G H I J K L M N O P Q R S T U V W X Y Z 0-9

Bones 1 Guitar Tabs – Young Guns

CD, Sheet music, Poster

Do you like Bones 1? Share with your friends now
Bass TabsBass Tabs v2ChordsDrum TabsTabsTabs v2Tabs v3Ukulele
Young Guns-Bones  drop D
This Tab was originally by the guitar tab thing on here but it was  
annoyingly in drop B so i thought i would be a good samaritan and 
change it to D

Guitar 1
 |--------------------------------------------------------------|
 |----------7-7-7-7-7---------5-5-5-2-2-------------------------|
 |--------------------------------------------------------------| x2
 |--4--4--4-----------4--4--4-----------------------------------|
 |--------------------------------------------------------------|
 |--------------------------------------------------------------|

Guitar 2
|---------------------------------xx-xx-----------------------------------|
|---------------------------------xx-xx-----------------------------------|
|---------------------------------xx-xx-----------------------------------|x2
|---------------------------------xx-xx-----------------------------------|
|---------------------------------xx-xx-----------------------------------|
|---------------------------------xx-xx-----------------------------------|

LifeLine


Intro 2nd part

Guitar 1
|-------------------------------------------------------------------|
|------------7-7-7-7-7------------5-5-5-2-2-------------------------|
|-------------------------------------------------------------------| x2
|-4--4--4----------------4--4--4------------------------------------|
|-------------------------------------------------------------------|
|-------------------------------------------------------------------|

Guitar 2
|-------------------------------------------------------------------------|
|-------------------------------------------------------------------------|
|-------------------------------------------------------------------------|x2
|00000-444444444444--22222222222222222222---------------------------------|
|00000-444444444444--22222222222222222222---------------------------------|
|00000-444444444444--22222222222222222222---------------------------------|


Verse 1

Guitar 1 (slowly becomes louder)
|----------------------------------------------------------------------|
|----------7-7-7-7-7-------------5-5-5-2-2-----------------------------|
|----------------------------------------------------------------------| x4
|-4--4--4----------------4--4--4---------------------------------------|
|----------------------------------------------------------------------|
|----------------------------------------------------------------------|

No guitar 2 

Pre-chorus

Guitar 1 (Quite hard to hear, so I'm guessing here, strum as 16th notes.)
|-----------------------------------------------------|
|-----------------------------------------------------|
|11-11-14-14-14-14-14-14-14-14-13-13-13-13------------|x2
|-----------------------------------------------------|
|9--9--12-12-12-12-12-12-12-12-11-11-11-11------------|
|-----------------------------------------------------|

Guitar 2
|------------------------------------------------------|
|------------------------------------------------------|
|------------------------------------------------------| x2
|00000-444444444444--22222222222222222222--------------|
|00000-444444444444--22222222222222222222--------------|
|00000-444444444444--22222222222222222222--------------|

Chorus

Guitar 1
|------------------------------------------------------------|
|-----------7-7-7-7-7------------5-5-5-2-2-------------------|
|------------------------------------------------------------| x2
|-4--4--4----------------4--4--4-----------------------------|
|------------------------------------------------------------|
|------------------------------------------------------------|

Guitar 2
|--------------------------------------------------------|
|--------------------------------------------------------|
|4-4-4-4-------------------------------------------------| x2
|4-4-4-4-0-0-0-0-0-0-0-4-4-4-4-4-2-2-2-2-2-2-------------|
|2-2-2-2-0-0-0-0-0-0-0-4-4-4-4-4-2-2-2-2-2-2-------------|
|--------0-0-0-0-0-0-0-4-4-4-4-4-2-2-2-2-2-2-------------|

Post-chorus

Guitar 1 (Rhythm is easy to get when you listen to the song)
|x-x-----xx--xx------x-x-----xx--xx--------|
|x-x-----xx--xx------x-x-----xx--xx--------|
|x-x-----xx--xx------x-x-----xx--xx--------| x2
|x-x-----xx--xx------x-x-----xx--xx--------|
|x-x-----xx--xx------x-x-----xx--xx--------|
|x-x-----xx--xx------x-x-----xx--xx--------|

No guitar 2 

Verse 2

Guitar 1 (slowly becomes louder)
|-------------------------------------------|
|----------7-7-7-7-7----------5-5-5-2-2-----|
|-------------------------------------------| x4
|-4--4--4-------------7--7--7---------------|
|-------------------------------------------|
|-------------------------------------------|

No guitar 2 

Pre-chorus

Guitar 1 (Quite hard to hear, so I'm guessing here, strum as 16th notes.)
|-------------------------------------------------------|
|-------------------------------------------------------|
|11-11-14-14-14-14-14-14-14-14-13-13-13-13--------------|x2
|-------------------------------------------------------|
|9--9--12-12-12-12-12-12-12-12-11-11-11-11--------------|
|-------------------------------------------------------|


Guitar 2
|----------------------------------------------|
|----------------------------------------------|
|----------------------------------------------| x2
|00000-444444444444--22222222222222222222------|
|00000-444444444444--22222222222222222222------|
|00000-444444444444--22222222222222222222------|


Chorus

Guitar 1
|------------------------------------------|
|---------7-7-7-7-7---------5-5-5-2-2------|
|------------------------------------------| x2
|-4--4--4-----------4--4--4----------------|
|------------------------------------------|
|------------------------------------------|

Guitar 2
|-------------------------------------------------------|
|-------------------------------------------------------|
|4-4-4-4------------------------------------------------| x2
|4-4-4-4-0-0-0-0-0-0-0-4-4-4-4-4-2-2-2-2-2-2------------|
|2-2-2-2-0-0-0-0-0-0-0-4-4-4-4-4-2-2-2-2-2-2------------|
|--------0-0-0-0-0-0-0-4-4-4-4-4-2-2-2-2-2-2------------|


Solo

Guitar 1 (Start off with a pick slide)
|-----------------------------------------------------------------------|
|-----------------------------------------------------------------------|
|-----------------------------------------------------------------------|
|------------2-4-2-4-4-2-4-4-2-4-4----4-2-4-4-2-4--------2--------------|
|----------------------------------0---------------0-2-4----------------|
|//////////-------------------------------------------------------------|


|-----------------------------------------------------------------------|
|-----------------------------------------------------------------------|
|-----------------------------------------------------------------------|
|-4-2-4-4-2-4-4-2-4-4----4-2-4-4-2-4------------------------------------|
|---------------------0--------------2-2-2h4-0h2------------------------|
|-----------------------------------------------------------------------|


Guitar 2
|-----------------------------------------------------------------------|
|-----------------------------------------------------------------------|
|-----------------------------------------------------------------------|
|-4-4-4-4-4-4-4-4-4-4-4-4-4-4-4-4-4-4-0-0-0-0-0-0-0-0-0-0-0-0-0-0-------|
|-4-4-4-4-4-4-4-4-4-4-4-4-4-4-4-4-4-4-0-0-0-0-0-0-0-0-0-0-0-0-0-0-------|
|-4-4-4-4-4-4-4-4-4-4-4-4-4-4-4-4-4-4-0-0-0-0-0-0-0-0-0-0-0-0-0-0-------|


Solo part when singing kicks in (Hard to hear, so this is an educated guess.)

|-------------------------------------------------------------|
|-------------------------------------------------------------|
|-----------------------------2-2-----------------------------|
|-2-4-4-2-4-4-2-4-2-4-4-2-4-4-----2-4-4-2-4-4-2-4-------2-----|
|-------------------------------------------------0-2-4-------|
|-------------------------------------------------------------|

|-------------------------------------------------------------|
|------------------------------------13----13----13----18b----|
|------------------------------------15br--15br--15br---------|
|-2-4-4-2-4-4-2-4--4-6-6-4-6-6-4-6----------------------------|
|-------------------------------------------------------------|
|-------------------------------------------------------------|


Guitar 2 (Let the chords ring out.)
|---------------------------------------------------------------------------|
|---------------------------------------------------------------------------|
|---------------------------------------------------------------------------|
|-4~~~~~~~-----2~~~~~~~----0~~~~----2~~~~-----------------------------------|
|-4~~~~~~~-----2~~~~~~~----0~~~~----2~~~~-----------------------------------|
|-4~~~~~~~-----2~~~~~~~----0~~~~----2~~~~-----------------------------------|


Pre-chorus

Guitar 1 (Quite hard to hear, so I'm guessing here, strum as 16th notes.)
|---------------------------------------------------------------------------|
|---------------------------------------------------------------------------|
|11-11-14-14-14-14-14-14-14-14-13-13-13-13----------------------------------|x2
|---------------------------------------------------------------------------|
|9--9--12-12-12-12-12-12-12-12-11-11-11-11----------------------------------|
|---------------------------------------------------------------------------|


Guitar 2
|-------------------------------------------------------------------------|
|-------------------------------------------------------------------------|
|-------------------------------------------------------------------------|x2
|00000-444444444444--22222222222222222222---------------------------------|
|00000-444444444444--22222222222222222222---------------------------------|
|00000-444444444444--22222222222222222222---------------------------------|


Chorus

Guitar 1
|---------------------------------------------------------|
|---------7-7-7-7-7---------5-5-5-2-2---------------------|
|---------------------------------------------------------| x2
|-4--4--4-----------4--4--4-------------------------------|
|---------------------------------------------------------|
|---------------------------------------------------------|

Guitar 2
|-------------------------------------------------------------------------|
|-------------------------------------------------------------------------|
|4-4-4-4------------------------------------------------------------------|x2
|4-4-4-4-0-0-0-0-0-0-0-4-4-4-4-4-2-2-2-2-2-2------------------------------|
|2-2-2-2-0-0-0-0-0-0-0-4-4-4-4-4-2-2-2-2-2-2------------------------------|
|--------0-0-0-0-0-0-0-4-4-4-4-4-2-2-2-2-2-2------------------------------|


Outro

Guitar 1
|---------------------------------------------------------------------|
|---------7-7-7-7-7---------5-5-5-2-2---------------------------------|
|---------------------------------------------------------------------| x2
|-4--4--4-----------4--4--4-------------------------------------------|
|---------------------------------------------------------------------|
|---------------------------------------------------------------------|

Guitar 2 (Let the final chord ring.)
|------------------------------------------------------------------------|
|------------------------------------------------------------------------|
|------------------------------------------------------------------------|x2
|00000-444444444444-22222222222222222222---------------------------------|
|00000-444444444444-22222222222222222222---------------------------------|
|00000-444444444444-22222222222222222222---------------------------------|





Comments


Popular Young Guns tabs & chords
Bones Chords
Winter Kiss Chords
Bones Drum Tabs
Bones Tabs
Dearly Departed Tabs
I Was Born I Have Lived I Will Surely Die Tabs
You Are Not Tabs
Dearly Departed Ukulele
Learn My Lesson Ukulele
Stitches Ukulele


Song lyrics



↑ Back to top | Tablatures and chords are parodies/interpretations of the original songs. You may use it for private study, scholarship, research or language learning purposes only
© 2014 AZChords.com Contact us | Privacy policy | DMCA | Add/correct tabs | Request tabs | Top 50 tabs