>
 >
Bones

Bones Guitar Tabs

Young Guns - Bones chords, tabs, tablatures, lyrics

Guitar lessons | Add/correct | Request | Top 50 tabs Artists:  A B C D E F G H I J K L M N O P Q R S T U V W X Y Z 0-9

Bones Guitar Tabs – Young Guns

CD, Sheet music, Poster

Do you like Bones? Share with your friends now
Bass TabsBass Tabs v2ChordsDrum TabsTabsTabs v2Tabs v3Ukulele
-------------------------------------------------------------------------------
-------------------------------------------------------------------------------

Tuning:Drop B


Intro

Guitar 1
c#|---------------------------------------------------------------------------|
G#|---------10-10-10-10-10----------8-8-8-5-5---------------------------------|
E |---------------------------------------------------------------------------| x2
B |-7--7--7----------------7--7--7--------------------------------------------|
F#|---------------------------------------------------------------------------|
B |---------------------------------------------------------------------------|

Guitar 2
c#|---------------------------------xx-xx-------------------------------------|
G#|---------------------------------xx-xx-------------------------------------|
E |---------------------------------xx-xx-------------------------------------| x2
B |---------------------------------xx-xx-------------------------------------|
F#|---------------------------------xx-xx-------------------------------------|
B |---------------------------------xx-xx-------------------------------------|


Intro 2nd part

Guitar 1
c#|---------------------------------------------------------------------------|
G#|---------10-10-10-10-10---------8-8-8-5-5----------------------------------|
E |---------------------------------------------------------------------------| x2
B |-7--7--7----------------7--7--7--------------------------------------------|
F#|---------------------------------------------------------------------------|
B |---------------------------------------------------------------------------|

Guitar 2
c#|---------------------------------------------------------------------------|
G#|---------------------------------------------------------------------------|
E |---------------------------------------------------------------------------| x2
B |33333-777777777777--55555555555555555555-----------------------------------|
F#|33333-777777777777--55555555555555555555-----------------------------------|
B |33333-777777777777--55555555555555555555-----------------------------------|


Verse 1

Guitar 1 (slowly becomes louder)
c#|---------------------------------------------------------------------------|
G#|---------10-10-10-10-10----------8-8-8-5-5---------------------------------|
E |---------------------------------------------------------------------------| x4
B |-7--7--7----------------7--7--7--------------------------------------------|
F#|---------------------------------------------------------------------------|
B |---------------------------------------------------------------------------|

No guitar 2 so here's the bass
c#|---------------------------------------------------------------------------|
G#|---------------------------------------------------------------------------|
E |---------------------------------------------------------------------------| x4
B |---------------------------------------------------------------------------|
F#|---------------------------------------------------------------------------|
B |-7-7-7-10-10-10-10-10-10-5-5-5-5-5-5-5-5-5---------------------------------|


Pre-chorus

Guitar 1 (Quite hard to hear, so I'm guessing here, strum as 16th notes.)
c#|---------------------------------------------------------------------------|
G#|---------------------------------------------------------------------------|
E |14-14-17-17-17-17-17-17-17-17-16-16-16-16----------------------------------|x2
B |---------------------------------------------------------------------------|
F#|12-12-15-15-15-15-15-15-15-15-14-14-14-14----------------------------------|
B |---------------------------------------------------------------------------|


Guitar 2
c#|---------------------------------------------------------------------------|
G#|---------------------------------------------------------------------------|
E |---------------------------------------------------------------------------| x2
B |33333-777777777777--55555555555555555555-----------------------------------|
F#|33333-777777777777--55555555555555555555-----------------------------------|
B |33333-777777777777--55555555555555555555-----------------------------------|


Chorus

Guitar 1
c#|---------------------------------------------------------------------------|
G#|---------10-10-10-10-10----------8-8-8-5-5---------------------------------|
E |---------------------------------------------------------------------------| x2
B |-7--7--7----------------7--7--7--------------------------------------------|
F#|---------------------------------------------------------------------------|
B |---------------------------------------------------------------------------|

Guitar 2
c#|---------------------------------------------------------------------------|
G#|---------------------------------------------------------------------------|
E |---------------------------------------------------------------------------| x2
B |0-0-0-0-3-3-3-3-3-3-3-7-7-7-7-7-5-5-5-5-5-5--------------------------------|
F#|0-0-0-0-3-3-3-3-3-3-3-7-7-7-7-7-5-5-5-5-5-5--------------------------------|
B |0-0-0-0-3-3-3-3-3-3-3-7-7-7-7-7-5-5-5-5-5-5--------------------------------|


Post-chorus

Guitar 1 (Rhythm is easy to get when you listen to the song)
c#|x-x-----xx--xx------x-x-----xx--xx-------------------------------------|
G#|x-x-----xx--xx------x-x-----xx--xx-------------------------------------|
E |x-x-----xx--xx------x-x-----xx--xx-------------------------------------| x2
B |x-x-----xx--xx------x-x-----xx--xx-------------------------------------|
F#|x-x-----xx--xx------x-x-----xx--xx-------------------------------------|
B |x-x-----xx--xx------x-x-----xx--xx-------------------------------------|

No guitar 2 so here's bass.
c#|---------------------------------------------------------------------------|
G#|---------------------------------------------------------------------------|
E |---------------------------------------------------------------------------| x2
B |---------------------------------------------------------------------------|
F#|---------------------------------------------------------------------------|
B |-7-7-7-10-10-10-10-10-10-5-5-5-5-5-5-5-5-5---------------------------------|


Verse 2

Guitar 1 (slowly becomes louder)
c#|---------------------------------------------------------------------------|
G#|---------10-10-10-10-10----------8-8-8-5-5---------------------------------|
E |---------------------------------------------------------------------------| x4
B |-7--7--7----------------7--7--7--------------------------------------------|
F#|---------------------------------------------------------------------------|
B |---------------------------------------------------------------------------|

No guitar 2 so here's the bass
c#|---------------------------------------------------------------------------|
G#|---------------------------------------------------------------------------|
E |---------------------------------------------------------------------------| x4
B |---------------------------------------------------------------------------|
F#|---------------------------------------------------------------------------|
B |-7-7-7-10-10-10-10-10-10-5-5-5-5-5-5-5-5-5---------------------------------|


Pre-chorus

Guitar 1 (Quite hard to hear, so I'm guessing here, strum as 16th notes.)
c#|---------------------------------------------------------------------------|
G#|---------------------------------------------------------------------------|
E |14-14-17-17-17-17-17-17-17-17-16-16-16-16----------------------------------|x2
B |---------------------------------------------------------------------------|
F#|12-12-15-15-15-15-15-15-15-15-14-14-14-14----------------------------------|
B |---------------------------------------------------------------------------|


Guitar 2
C#|---------------------------------------------------------------------------|
G#|---------------------------------------------------------------------------|
E |---------------------------------------------------------------------------| x2
B |33333-777777777777--55555555555555555555-----------------------------------|
F#|33333-777777777777--55555555555555555555-----------------------------------|
B |33333-777777777777--55555555555555555555-----------------------------------|


Chorus

Guitar 1
c#|---------------------------------------------------------------------------|
G#|---------10-10-10-10-10----------8-8-8-5-5---------------------------------|
E |---------------------------------------------------------------------------| x2
B |-7--7--7----------------7--7--7--------------------------------------------|
F#|---------------------------------------------------------------------------|
B |---------------------------------------------------------------------------|

Guitar 2
c#|---------------------------------------------------------------------------|
G#|---------------------------------------------------------------------------|
E |---------------------------------------------------------------------------| x2
B |0-0-0-0-3-3-3-3-3-3-3-7-7-7-7-7-5-5-5-5-5-5--------------------------------|
F#|0-0-0-0-3-3-3-3-3-3-3-7-7-7-7-7-5-5-5-5-5-5--------------------------------|
B |0-0-0-0-3-3-3-3-3-3-3-7-7-7-7-7-5-5-5-5-5-5--------------------------------|


Solo

Guitar 1 (Start off with a pick slide)
c#|---------------------------------------------------------------------------|
G#|---------------------------------------------------------------------------|
E |---------------------------------------------------------------------------|
B |------------5-7-5-7-7-5-7-7-5-7-7----7-5-7-7-5-7---------------------------|
F#|----------------------------------3---------------3-5-7-10-----------------|
B |//////////-----------------------------------------------------------------|


c#|---------------------------------------------------------------------------|
G#|---------------------------------------------------------------------------|
E |---------------------------------------------------------------------------|
B |-7-5-7-7-5-7-7-5-7-7----7-5-7-7-5-7----------------------------------------|
F#|---------------------3--------------5-5-5h7-3h5----------------------------|
B |---------------------------------------------------------------------------|


Guitar 2
c#|---------------------------------------------------------------------------|
G#|---------------------------------------------------------------------------|
E |---------------------------------------------------------------------------|
B |-7-7-7-7-7-7-7-7-7-7-7-7-7-7-7-7-7-7-3-3-3-3-3-3-3-3-3-3-3-3-3-3-----------|
F#|-7-7-7-7-7-7-7-7-7-7-7-7-7-7-7-7-7-7-3-3-3-3-3-3-3-3-3-3-3-3-3-3-----------|
B |-7-7-7-7-7-7-7-7-7-7-7-7-7-7-7-7-7-7-3-3-3-3-3-3-3-3-3-3-3-3-3-3-----------|


Solo part when singing kicks in (Hard to hear, so this is an educated guess.)

c#|-----------------------------------------------------------------------------|
G#|-----------------------------------------------------------------------------|
E |-----------------------------5-5---------------------------------------------|
B |-5-7-7-5-7-7-5-7-5-7-7-5-7-7-----5-7-7-5-7-7-5-7-----------------------------|
F#|-------------------------------------------------3-5-7-10--------------------|
B |-----------------------------------------------------------------------------|

c#|---------------------------------------------------------------------------|
G#|------------------------------------16----16----16----21b------------------|
E |------------------------------------18br--18br--18br-----------------------|
B |-5-7-7-5-7-7-5-7--7-9-9-7-9-9-7-9------------------------------------------|
F#|---------------------------------------------------------------------------|
B |---------------------------------------------------------------------------|


Guitar 2 (Let the chords ring out.)
c#|---------------------------------------------------------------------------|
G#|---------------------------------------------------------------------------|
E |---------------------------------------------------------------------------|
B |-7~~~~~~~-----5~~~~~~~----3~~~~----5~~~~-----------------------------------|
F#|-7~~~~~~~-----5~~~~~~~----3~~~~----5~~~~-----------------------------------|
B |-7~~~~~~~-----5~~~~~~~----3~~~~----5~~~~-----------------------------------|


Pre-chorus

Guitar 1 (Quite hard to hear, so I'm guessing here, strum as 16th notes.)
c#|---------------------------------------------------------------------------|
G#|---------------------------------------------------------------------------|
E |14-14-17-17-17-17-17-17-17-17-16-16-16-16----------------------------------|x2
B |---------------------------------------------------------------------------|
F#|12-12-15-15-15-15-15-15-15-15-14-14-14-14----------------------------------|
B |---------------------------------------------------------------------------|


Guitar 2
C#|---------------------------------------------------------------------------|
G#|---------------------------------------------------------------------------|
E |---------------------------------------------------------------------------| x2
B |33333-777777777777--55555555555555555555-----------------------------------|
F#|33333-777777777777--55555555555555555555-----------------------------------|
B |33333-777777777777--55555555555555555555-----------------------------------|


Chorus

Guitar 1
c#|---------------------------------------------------------------------------|
G#|---------10-10-10-10-10----------8-8-8-5-5---------------------------------|
E |---------------------------------------------------------------------------| x2
B |-7--7--7----------------7--7--7--------------------------------------------|
F#|---------------------------------------------------------------------------|
B |---------------------------------------------------------------------------|

Guitar 2
c#|---------------------------------------------------------------------------|
G#|---------------------------------------------------------------------------|
E |---------------------------------------------------------------------------| x2
B |0-0-0-0-3-3-3-3-3-3-3-7-7-7-7-7-5-5-5-5-5-5--------------------------------|
F#|0-0-0-0-3-3-3-3-3-3-3-7-7-7-7-7-5-5-5-5-5-5--------------------------------|
B |0-0-0-0-3-3-3-3-3-3-3-7-7-7-7-7-5-5-5-5-5-5--------------------------------|


Outro

Guitar 1
c#|---------------------------------------------------------------------------|
G#|---------10-10-10-10-10----------8-8-8-5-5---------------------------------|
E |---------------------------------------------------------------------------| x2
B |-7--7--7----------------7--7--7--------------------------------------------|
F#|---------------------------------------------------------------------------|
B |---------------------------------------------------------------------------|

Guitar 2 (Let the final chord ring.)
c#|---------------------------------------------------------------------------|
G#|---------------------------------------------------------------------------|
E |---------------------------------------------------------------------------| x2
B |33333-777777777777--55555555555555555555-----------------------------------|
F#|33333-777777777777--55555555555555555555-----------------------------------|
B |33333-777777777777--55555555555555555555-----------------------------------|


Some of this tab was tough to hear, so make sure to leave a message if you have any
improvements. Hopefully Young Guns visit Australia again sometime in the near future, they
are a bloody awesome band! Also make sure to pick up their album "Bones" when it's 
released in February. Cheers.


************************************

| /   slide up
| \   slide down
| h   hammer-on
| p   pull-off
| ~   vibrato
| +   harmonic
| x   Mute note
| b   Bend
| pb  Pre-bend
| br  Bend release
| pbr Pre-bend release
| brb Bend release bend

************************************





Comments


Popular Young Guns tabs & chords
Stitches Bass Tabs
At The Gates Chords
Stitches Chords
Winter Kiss Chords
Bones 1 Tabs
Daughter Of The Sea Intro Tabs
Elements Tabs
Stitches 1 Tabs
Weight Of The World Tabs
You Are Not Ukulele


Song lyrics



↑ Back to top | Tablatures and chords are parodies/interpretations of the original songs. You may use it for private study, scholarship, research or language learning purposes only
© 2014 AZChords.com Contact us | Privacy policy | DMCA | Add/correct tabs | Request tabs | Top 50 tabs