» » »

Yoko Kanno, Heavens Not Enough Tabs (ver.1)

Artists:  A B C D E F G H I J K L M N O P Q R S T U V W X Y Z # 

Heavens Not Enough Tabs (ver.1)

Yoko Kanno Tabs
 Rating:
4/5 (4 votes)
Heavens Not Enough lessons Tabs too difficult? Try these video lessons and learn fast
1
                Tuning: Standerd

This is my first tab on this site and ive never made a tab before, so if you have

I noticed their were no tabs for this song so I decided to try and figure it out myself.

Intro:

|-----0-----0---0-|-----0-----0---0-|-----0-----0-----0-|-----0-----0----0-|
|---1-----1---1---|---1-----1---1---|---1-----1-----1---|---1-----1----1---|
|-2-----2---------|-0-----0---------|-------------------|------------------|
|-----------------|-----------------|-3-----3-----3-----|-3-----3----------|
|-----------------|-----------------|-------------------|------------------|
|-----------------|-----------------|-------------------|------------------|



Chords:
|-------0---------|-------0---------|--------0----------|-------2----------|
|-------1---------|-------0---------|--------1----------|-------3----------|
|-------2---------|-------1---------|--------0----------|-------2----------| X2
|-------2---------|-------2---------|--------2----------|-------0----------|
|-----------------|-------2---------|--------3----------|------------------|
|-----------------|-----------------|-------------------|------------------|


|-------0---------|-------3---------|--------1----------|-------0----------|
|-------1---------|-------3---------|--------1----------|-------0----------|
|-------2---------|-------0---------|--------1----------|-------0----------|
|-------2---------|-------0---------|--------3----------|-------2----------|
|-----------------|-------2---------|--------3----------|-------2----------|
|-----------------|-------3---------|--------1----------|-------0----------|


|-------0---------|-------3---------|--------0----------|-------0----------|
|-------1---------|-------3---------|--------0----------|-------0----------|
|-------2---------|-------0---------|--------2----------|-------2----------|
|-------2---------|-------0---------|--------3----------|-------3----------|
|-----------------|-------2---------|-------------------|------------------|
|-----------------|-------3---------|-------------------|------------------|

|-------0---------|-------3---------|--------1----------|-------1----------|
|-------1---------|-------3---------|--------1----------|-------1----------|
|-------2---------|-------0---------|--------1----------|-------1----------|
|-------2---------|-------0---------|--------3----------|-------3----------|
|-----------------|-------2---------|--------3----------|-------3----------|
|-----------------|-------3---------|--------1----------|-------1----------|


Then the next part is like at about 3:00 where it gets all climatic, and strum the chords
however you feel fit doing it. :p

|-------0---------|-------3---------|--------2----------|-------2----------|
|-------1---------|-------3---------|--------3----------|-------3----------|
|-------2---------|-------0---------|--------2----------|-------2----------|
|-------2---------|-------0---------|--------0----------|-------0----------|
|-----------------|-------2---------|-------------------|------------------|
|-----------------|-------3---------|-------------------|------------------|

|-------0---------|-------3---------|--------2----------|-------2----------|
|-------1---------|-------3---------|--------3----------|-------3----------|
|-------2---------|-------0---------|--------2----------|-------2----------|
|-------2---------|-------0---------|--------0----------|-------0----------|
|-----------------|-------2---------|-------------------|------------------|
|-----------------|-------3---------|-------------------|------------------|


And then the last bit goes like this


|-------0---------|-------3---------|-------------------|------------------|
|-------1---------|-------3---------|-------------------|------------------|
|-------2---------|-------0---------|-------------------|------------------|
|-------2---------|-------0---------|-------------------|------------------|
|-----------------|-------2---------|--10-8-7-6---------|------------------|
|-----------------|-------3---------|--8--6-5-4---------|------------------|

then play the intro if you want again and your good haha. I know its not perfect
but you listen along its mostly accurate. At least now you guys got something to work with.

The last bit is power chords haha. I hope you guys enjoy this it took me forever
to do, thank god though. Bet you just been dying to play this song. ;)
            
Submit corrections

comments powered by Disqus
↑ Back to top | Yoko Kanno Tabs for Heavens Not Enough. Lyrics for acoustic guitar and electric guitar. 1 Tablatures and chords are parodies/interpretations of the original songs. You may use it for private study, scholarship, research or language learning purposes only