>
 >
Fado

Fado Guitar Tabs

Yoko Kanno - Fado chords, tabs, tablatures, lyrics

Guitar lessons | Add/correct | Request | Top 50 tabs Artists:  A B C D E F G H I J K L M N O P Q R S T U V W X Y Z 0-9

Fado Guitar Tabs – Yoko Kanno

CD, Sheet music, Poster

Do you like Fado? Share with your friends now
Tabs
-------------------------------------------------------------------------------
-------------------------------------------------------------------------------


Tuning: F A# D# g# c f  (or standard tuning with a capo on the 1st fret)

I basically tried to transcribe the main guitar, guitar 2 is pretty inaccurate. 


Verse
-------------

Guitar 1:

e|----------------------------------------------------|
b|------0-----0-----0---0-------0---0-------0------0--|
g|----------------------------------------------------|
D|----4-----4-----4---4---4---4---4---4---4------4----|
A|--2-----4-----0------------------------------0------|
E|--------------------------4-----------3-------------|
During the whole verse


Guitar 2:

e|------2-----2-----2-----2-----2-----2-----2-----2---|
b|----0-----0-----0-----0-----0-----0-----0---0-------|
g|----------------------------------------------------| Verse 1
D|--4-----4-----4-----4-----4-----4-----4-------4-----|
A|----------------------------------------------------|
E|----------------------------------------------------|

e|------2-----2-----2-----2---------2-----2-----2-----|
b|----0-----0-----0---0-----0---0-----0-----0-----0---|
g|----------------------------------------------------|
D|--4-----4-----4-------4-----4---4-----4-----4-----4-| Verse 2
A|----------------------------------------------------|
E|----------------------------------------------------|

e|--2---------2-----2-------2-----2-----2-----2-------|
b|----0---0-----0-----0---0---0-----0-----0-----0-----|
g|----------------------------------------------------|
D|------4---4-----4-----4-------4-----4-----4-----4---| Verse 2
A|----------------------------------------------------|
E|----------------------------------------------------|

Order: Verse 1 x2, Verse 2, Verse 1 x2



Chorus
-------------

Guitar 1:
e|------------0------------------------0---------0------|
b|------0---0-----------2------------3---------3---3----|
g|--------0-----------2-----2------4---------4-------4--|
D|------------------2-----------------------------------|
A|----2--------------------------2-------2-5------------|
E|--0-------------0------------0------------------------|
Te cala...

e|--------0-----------0--------------------------0----------0-------|
b|------0---0-------0---0---------3------------3---3------0-------3-|
g|----2-------2---2-------2-----2---2--------2----------2---------2-|
D|----------------------------0-------0----0----------2-------2/3-3-|
A|--4---------------------------------------------------------------|
E|--------------3-----------2------------1--------------------------|





Guitar 2 (probably garbage, the orchestra sounds are too loud for me to filter this guitar): 
e|------------0------------0---------0-2-----------0-----------0-|
b|------0---0--------0---0-------0-----------0---0-------0---0---|
g|--------0------------0-----------0-------0---0-------0---0-----|
D|---------------------------------------0-----------------------|
A|----2------------2-----------2---------------------4-----------|
E|--0------------0-----------0-----------------------------------|

e|------0-----0---0-----------0-----0-------0---------5-|
b|--0-0---0-0---0---0-0-0-0-0---0-0---0-0-0---0-0-----3-|
g|------------------------------------------------------|
D|------------------------------------------------------|
A|------------------------------------------------------|
E|------------------------------------------------------|



Bridge:
-------------

Guitar 1:

e|---------------------------------------------------------|
b|--3-3-x-3-3-x-3-3-x-3-3-x-3-------3-3-x-3-3-x-3-3-x-3-3--|
g|--2-2-x-2-2-x-2-2-x-2-2-x-2-------2-2-x-2-2-x-2-2-x-2-2--|
D|--3-3-x-3-3-x-3-3-x-3-3-x-3-------3-3-x-3-3-x-3-3-x-3-3--|
A|---------------------------------------------------------|
E|---------------------------------------------------------|

Guitar 2:
e|-------------------------------5-------------------------|
b|-------------------------------3-------------------------|
g|---------------------------------------------------------|
D|---------------------------------------------------------|
A|---------------------------------------------------------|
E|---------------------------------------------------------|


Repeat verse and chorus after this


Ending:
-------------

Guitar 1:

e|---------------------------------------------------------------|
b|------0-----0-----0---0-------0---0-------0---0-------0-----0--|
g|---------------------------------------------------------------|
D|----4-----4-----4---4---4---4---4---4---4---4---4---4-----4----|
A|--2-----4-----0-----------------------0-----------0-----1------|
E|--------------------------4------------------------------------|
4 times

e|--------|
b|--------|
g|--4-4-4-|
D|--4-4-4-|
A|--2-2-2-|
E|--------|
until the end


Guitar 2:
Something similar to verse 1, almost not noticeable anymore





************************************

| /   slide up
| \   slide down
| h   hammer-on
| p   pull-off
| ~   vibrato
| +   harmonic
| x   Mute note
| b   Bend
| pb  Pre-bend
| br  Bend release
| pbr Pre-bend release
| brb Bend release bend

************************************





Comments


Popular Yoko Kanno tabs & chords
Too Good Too Bad Bass Tabs
Call Me Call Me Chords
Psychedelic Soul Chords
Green Bird 1 Tabs
Tank Tabs
Waltz For Zizi 1 Tabs
Wo Qui Non Coin Tabs
Heavens Not Enough Ukulele
The Real Folk Blues Ukulele
Words That We Couldnt Say Ukulele


Song lyrics



↑ Back to top | Tablatures and chords are parodies/interpretations of the original songs. You may use it for private study, scholarship, research or language learning purposes only
© 2014 AZChords.com Contact us | Privacy policy | DMCA | Add/correct tabs | Request tabs | Top 50 tabs