» » »

Flamenco Diablo Tabs (ver.2)

Artists:  A B C D E F G H I J K L M N O P Q R S T U V W X Y Z # 

Flamenco Diablo Tabs (ver.2)

Yngwie Malmsteen
Rating:
0/5 (0 votes)

Hard to play? Try these video lessons and learn fast.
                (Intro)
Just the intro for now, everything is right, just have to figure out the timing 
 There is another guitar, but I just did this one.

e|-0---------------------------|
B|-0--6-5h6p5------------------|
G|-1-------------7-6-5---------|
D|-2-------------------8-5-6/8-|
A|-2---------------------------|
E|-0---------------------------|


e|12-12-12-12-12-12-12-12-12-12-12-12-12-12-12-12-12~~~-10------------------|
B|--------------------------------------------------------13-12-10----------|
G|----------------------------------------------------------------13-10-9---|
D|--------------------------------------------------------------------------|
A|--------------------------------------------------------------------------|
E|--------------------------------------------------------------------------|


e|-------------------------------------------------10-12-13-12-13-12-10-----|
B|-----------------------------------------10-12-13--------------------13-12|
G|--------------------------------------------------------------------------|
D|-12-10-9-----------9/15~~~-14-12-14--9~~~---------------------------------|
A|---------12-11/12---------------------------------------------------------|
E|--------------------------------------------------------------------------|


e|---------------------------------------12-13-12--------13/20-19-17-16-17--|
B|-10-9-------------------------10-12-13---------15-13-12-------------------|
G|------10-9------------------10--------------------------------------------|
D|----------10-9--------9-10-9----------------------------------------------|
A|--------------12-11-12----------------------------------------------------|
E|--------------------------------------------------------------------------|


e|-16-16--------------------------------------------------------------------|
B|------17-18--17--15--13--12--10--9------------------------------------10--|
G|-----------19--17--16--14--13--10-10-9----------------------------9-10----|
D|----------------------------------------10-9-12-10-9--------9-10-12-------|
A|----------------------------------------------------12-11-12--------------|
E|--------------------------------------------------------------------------|


e|------10-13-12-13-17-16-17----13-16-13-12----13--12-13-12-10----12--------|
B|-12-13------------------------------------15------------------10--9h10-9~~|
G|--------------------------------------------------------------------------|
D|--------------------------------------------------------------------------|
A|--------------------------------------------------------------------------|
E|--------------------------------------------------------------------------|


e|----------------------|
B|----------------------|
G|-10-9-7---------------|
D|--------10-9-7-6-2~~~-|
A|----------------------|
E|----------------------|
            
Hard to play? Try these video lessons and learn fast. | Correct




comments powered by Disqus
↑ Back to top | Tablatures and chords are parodies/interpretations of the original songs. You may use it for private study, scholarship, research or language learning purposes only