>
 >
Flamenco Diablo

Flamenco Diablo Guitar Tabs

Yngwie Malmsteen - Flamenco Diablo chords, tabs, tablatures, lyrics

Guitar lessons | Add/correct | Request | Top 50 tabs Artists:  A B C D E F G H I J K L M N O P Q R S T U V W X Y Z 0-9

Flamenco Diablo Guitar Tabs – Yngwie Malmsteen

CD, Sheet music, Poster

Do you like Flamenco Diablo? Share with your friends now
Tabs
flamenco diabo


yngwie malmsteen






eb:-----------0----------------------------------------------------------------------------|
Bb:---------0-----6-5h6p5----------------------17-17-17-17-17-17-17-17~~~-17-15-14---------|
Gb:-------1---------------7-6-5----------------------------------------------------16-13h14|
Db:-----2-----------------------8-5-6/8~~~-------------------------------------------------|
Ab:---2------------------------------------------------------------------------------------|
Eb:-0--------------------------------------------------------------------------------------|

eb:-------------------------------------------------------------------------------0-|
Bb:-----------------------------------------------------------------------------0---|
Gb:-13------------------------------------------------------------------------1-----|
Db:----16-13h14p13----------------------13-11/13----------------------------2-------|
Ab:-----------------13--10-11/13--13~~------------13~~~-13-13-13-13-13----2---------|
Eb:---------------------------------------------------------------------0-----------|

:----------12-13--12h13p12--------------------------------------------------0-0-0--|
:-------15-----------------15-12h13p12--------------------------------------0-0-0--|
:----14--------------------------------15-12h14p12--------------------------1-1-1--|
:-15-----------------------------------------------14-12h14p12--------------2-2-2--|
:--------------------------------------------------------------14-11-12/14--2-2-2--|
:---------------------------------------------------------------------------0-0-0--|

:----------10h13p10---------------20-19-17-------------------------------------------------|
:-------11----------13p10--10/19-----------20-19-17h19p17----------------------------------|
:----10---------------------------------------------------19-16h17p16----------------------|
:-11------------------------------------------------------------------19-16h18p16----------|
:--------------------------------------------------------------------------------1916h18p16|
:------------------------------------------------------------------------------------------|

:----------------------------------------------------|
:----------------------------------------------------|
:--------------------10------9-------7---------------|
:-----------------10-------9-------7-----------------|
:--------------12-------11-------8-----9-8-7---------|
:-19-16h18p16----------------------------------------|


e:-------------------------------------------16-17-16h17p16-----------------------------|
B:----------------------------------------17----------------17-15-18-17h18p17-17-15-18--|
G:-------------------------------16-17-19-----------------------------------------------|
D:----------------------16-17-19--------------------------------------------------------|
A:-------------16-17-19-----------------------------------------------------------------|
E:-19-16h17-19--------------------------------------------------------------------------|


e:-------------------------------------0---0---1p0-------------------|
B:-15h17p15----15--17~----------------0------------3p0---------------|
G:----------17----------13h14p13-----1-----------------2p0-----------|
D:----------------------------------2----------------------2p0-------|
A:---------------------------------2---------------------------0-----|
E:--------------------------------0----------------------------------|

gt1 rythm
  30 secs         41 secs        45 secs      55 secs       1:00
e:-0--0--0-0-0-|-1--1--1-1-1-|-0--0--0-0-0-|-1--1--1-1-1-|-0--0--0-0-0-|
B:-0--0--0-0-0-|-1--1--1-1-1-|-0--0--0-0-0-|-1--1--1-1-1-|-0--0--0-0-0-|
G:-1--1--1-1-1-|-2--2--2-2-2-|-1--1--1-1-1-|-2--2--2-2-2-|-1--1--1-1-1-|
D:-2--2--2-2-2-|-3--3--3-3-3-|-2--2--2-2-2-|-3--3--3-3-3-|-2--2--2-2-2-|
A:-2--2--2-2-2-|-3--3--3-3-3-|-2--2--2-2-2-|-3--3--3-3-3-|-2--2--2-2-2-|
E:-0--0--0-0-0-|-1--1--1-1-1-|-0--0--0-0-0-|-1--1--1-1-1-|-0--0--0-0-0-|


gt2
e:-20-19-17-19-17----17-------------------------------------------------------------------|
B:----------------20----20-19-17-19-17----17----------------17-19-17----------------------|
G:-------------------------------------20----20-19-17-19-17----------20-17-19-17--16-17-16|
D:----------------------------------------------------------------------------------------|
A:----------------------------------------------------------------------------------------|
E:----------------------------------------------------------------------------------------|
    
:------------------------------------------------------------------------------------------|
:---------------------------------------------10-12-13-10-12--10----10---------------------|
:-17-19-17--16-17-16--14-16-14--12-14-12--12---------------------12-----12-10-----10-------|
:------------------------------------------------------------------------------12----12-10-|
:------------------------------------------------------------------------------------------|
:------------------------------------------------------------------------------------------|

:--------------------------------------------17--17-17~------------------------------------|
:----------10-12-13-10-----------------12/---------------18-18-18-18-18-18-18-18--17h18p18-|
:----10-12--------------12-10--------------------------------------------------------------|
:-12--------------------------12-10--------------------------------------------------------|
:-----------------------------------10-----------------------------------------------------|
:------------------------------------------------------------------------------------------|

e:---------------------------------------------------------------------------------0-1--5-|
B:15h17p15-13h15p13-12h13p12-10h12p10-9h10p9-7h9p7-5h7p5-3h5p3-------------------3--------|
G:--------------------------------------------------------------4-2--1----1-2-4-----------|
D:----------------------------------------------------------------------4-----------------|
A:----------------------------------------------------------------------------------------|
E:----------------------------------------------------------------------------------------|

:-4-2--4-2--1-2-1---1---------------------------0--8-7-5--0-1----0-------------------------|
:-----------------4---4--2-4-2--1-2-1---------3---------------3-----1-3-0-1----0-----------|
:--------------------------------------4-0-2---------------------------------2---2--1h2p1--|
:-----------------------------------------------------------------------------------------4|
:------------------------------------------------------------------------------------------|
:------------------------------------------------------------------------------------------|

e:-------------------2-3-5--7-8-10--9-10-12--11-12-14--12-13-15--13-14-16--15-17-15--------|
B:-------------2-3-5----------------------------------------------------------------18-17-18
G:-------1-2-4-----------------------------------------------------------------------------|
D:-1-2-4-----------------------------------------------------------------------------------|
A:-----------------------------------------------------------------------------------------|
E:-----------------------------------------------------------------------------------------|
         
:------------------------------------------------------------------------------------------|
:-18-18-18-17-18--15-17-15--14-15-14--15-17-15--17-18-17--15-17-15--14-15-14--15-17-15--14-|
:------------------------------------------------------------------------------------------|
:------------------------------------------------------------------------------------------|
:------------------------------------------------------------------------------------------|
:------------------------------------------------------------------------------------------|
  
:-----------------------------------------------------------------------------|
:-15-14--12-14-12--15-17-15--14-15-14--12-14-12--10-12-10--9-10-9--7-9-7--5~--|
:-----------------------------------------------------------------------------|
:-----------------------------------------------------------------------------|
:-----------------------------------------------------------------------------|
:-----------------------------------------------------------------------------|


:00000000--7--0000--12--0000--7--0000--8--0000--5--0000--7--0000--4-|
:-------------------------------------------------------------------|
:-------------------------------------------------------------------|
:-------------------------------------------------------------------|
:-------------------------------------------------------------------|
:-------------------------------------------------------------------|

:00000000--7--0000--12--0000--7--0000--8--0000--5--0000--5h7p5-4-5--|
:-------------------------------------------------------------------|
:-------------------------------------------------------------------|
:-------------------------------------------------------------------|
:-------------------------------------------------------------------|
:-------------------------------------------------------------------|

:---5--8-7-5h7p5--------------------------------------------------------------------------|
:-5--------------5------5-6-5h6p5---------------------------------------------------------|
:------------------5--7-----------7-5--5h7p5--4h5p4--2h4p2--0h2p0------------0--2-4-5-4-2-|
:------------------------------------------------------------------4-0--2-4---------------|
:-----------------------------------------------------------------------------------------|
:-----------------------------------------------------------------------------------------|

:-------------------------------------|
:-------------------------------------|
:---2---------------------------------|
:-5---5-4--2-4-2----------------------|
:-------------------------------------|
:-------------------------------------|

this is the only thing i got of this song *thank god!* 
seriously, i download this years ago and recentrly i found it and i was tempting to tabbed
so this is what it came out





Comments


Popular Yngwie Malmsteen tabs & chords
Now Your Ships Are Burned Bass Tabs
Adagio Tabs
Anguish And Fear Tabs
Fire Tabs
Forever Is A Long Time Tabs
Fugue Tabs
Golden Dawn 1 Tabs
Heaven Tonight 1 Tabs
Leonardo Tabs
The Seventh Sign 1 Tabs


Song lyrics



↑ Back to top | Tablatures and chords are parodies/interpretations of the original songs. You may use it for private study, scholarship, research or language learning purposes only
© 2014 AZChords.com Contact us | Privacy policy | DMCA | Add/correct tabs | Request tabs | Top 50 tabs