>
 >
Dont Let It End 1

Dont Let It End 1 Guitar Tabs

Yngwie Malmsteen - Dont Let It End 1 chords, tabs, tablatures, lyrics

Guitar lessons | Add/correct | Request | Top 50 tabs Artists:  A B C D E F G H I J K L M N O P Q R S T U V W X Y Z 0-9

Dont Let It End 1 Guitar Tabs – Yngwie Malmsteen

CD, Sheet music, Poster

Do you like Dont Let It End 1? Share with your friends now
Tabs

DON'T LET IT END
As recorded by Yngwie J. Malmsteen
(From the 1985 Album MARCHING OUT)

        

Words and Music by Yngwie Malmsteen and Jeff Scott Soto

Gtr I (E A D G B E) - 'Acoustic Guitar'
Gtr II (E A D G B E) - 'Acoustic Guitar'
Gtr III (E A D G B E) - 'Electric Guitar'
Gtr IV (E A D G B E) - 'Electric Guitar'

 Intro
  Q=142
  Dmadd2
 4/4
  Gtr I
  E  E  E  E  E  E  E  E   E  E  E  E  E  E  E  E
|----------0-------------|----0--------------0-------|
|-------6--------6-------|-6--------6-----------6----|
|-------------7--------7-|-------7--------7----------|
|----7--------------7----|-------------7-------------|
|-5----------------------|---------------------------|
|------------------------|---------------------------|


  Bb/D
                                        |--3--|  |--3--|
  E  E  E  E  E  E  E   E   E  E  E  E  E  E  E  E  E  E
|----------0--------------|----0-----------------0-------|
|-------6--------6--------|-6--------6--------6-----6----|
|-------------7---------7-|-------7--------7-----------7-|
|----8--------------8-----|-------------8----------------|
|-5-----------------------|------------------------------|
|-------------------------|------------------------------|


  Dmadd2
  E  E  E  E  E  E  E  E    E  E  E  E  E  E  E  E
|----------0-------------|-----0--------------0-------|
|-------6--------6-------|--6--------6-----------6----|
|-------------7--------7-|--------7--------7----------|
|----7--------------7----|--------------7-------------|
|-5----------------------|----------------------------|
|------------------------|----------------------------|


  Bb/D
                                       |--3--|  |--3--|
  E  E  E  E  E  E  E  E   E  E  E  E  E  E  E  E  E  E
|----------0-------------|----0-----------------0-------||
|-------6--------6-------|-6--------6--------6-----6----||
|-------------7--------7-|-------7--------7-----------7-||
|----8--------------8----|-------------8----------------||
|-5----------------------|------------------------------||
|------------------------|------------------------------||


 Verse
  Dmadd2
  E  E  E  E  E  E  E  E   E  E  E  E  E  E  E  E
|----------0-------------|----0--------------0-------|
|-------6--------6-------|-6--------6-----------6----|
|-------------7--------7-|-------7--------7----------|
|----7--------------7----|-------------7-------------|
|-5----------------------|---------------------------|
|------------------------|---------------------------|


  Bb/D
                                       |--3--|  |--3--|
  E  E  E  E  E  E  E  E   E  E  E  E  E  E  E  E  E  E
|----------0-------------|----0-----------------0-------|
|-------6--------6-------|-6--------6--------6-----6----|
|-------------7--------7-|-------7--------7-----------7-|
|----8--------------8----|-------------8----------------|
|-5----------------------|------------------------------|
|------------------------|------------------------------|


  Dmadd2
  E E E E E E E E   E E E E E E E E
|-------0---------|---0---------0---|
|-----6-----6-----|-6-----6-------6-|
|---------7-----7-|-----7-----7-----|
|---7---------7---|---------7-------|
|-5---------------|-----------------|
|-----------------|-----------------|


  Bb/D
  E E E E E E E E   E E E E E E E E
|-------0---------|---0---------0---|
|-----6-----6-----|-6-----6-------6-|
|---------7-----7-|-----7-----7-----|
|---8---------8---|---------8-------|
|-5---------------|-----------------|
|-----------------|-----------------|


  A7b9
  Q   E E  E  E E  E   E  E  E E  E  E  E  E
|---------12---------|----9------12----------|
|------------11------|------11------11-------|
|-------9-------9----|---------9-------14----|
|----11-----------11-|--------------------11-|
|-0------------------|-0---------------------|
|--------------------|-----------------------|


  Dm/A
   E   E   E   E   E   E   E   E   E   E   E   E   E   E   E   E
|-----------------10-------------|----12--13--15--17--13------------|
|-----10--------------10---------|------------------------16--------|
|---------10--------------10-----|----------------------------14----|
|-12----------12--------------12-|----------------------------------|
|--------------------------------|-0--------------------------------|
|--------------------------------|----------------------------------|
|
|                                  Gtr II
|              W                   E   E   E   E   E   E   E   E
|--------------------------------|----------------------------------|
|--------------------------------|------------10----------10--------|
|--------------------------------|--------10----------10------10----|
|--------------------------------|----12----------12----------------|
|--------------------------------|-0--------------------------------|
|--------------------------------|----------------------------------|


  D/A
  Q   E   E   E   E   E   E   Q     E  E   H
|------------13-------------|-------------^7----|
|----------------12---------|----------9--^6----|
|--------13----------13-----|------10-----^7----|
|----12------------------12-|-9-----------^6----|
|-0-------------------------|-------------------|
|---------------------------|-------------------|


  Asus4                           A
  E   E   E   E   E   E   E   E    E   E   E   E  E   E  E   E
|------------12--17--12---------|-17--12----------------------------|
|--------15--------------15-----|---------14--10-----10-------------|
|----14----------------------14-|-----------------9------9----------|
|-------------------------------|---------------------------11------|
|-0-----------------------------|-----------------------------------|
|-------------------------------|-----------------------------------|
|
| Gtr II
| H               E   E   E   E    H                           H
|-0-----------------------------|-----------------------------------|
|-------------------------------|-----------------------------------|
|----------------14---7---7---7-|--6--------------------------------|
|-------------------------------|-----------------------------------|
|-------------------------------|-----------------------------------|
|-------------------------------|-----------------------------------|


  A7b9                                      Dm/A
  Q.   E E  E  E  E    E  E  E  E  Q   Q     E  E  E  E  E  E  E  E
|------9---12-------|----12----12---------|-------------10----------|
|--------8----11----|-11----10--------11--|----------10----10-------|
|-0--------------12-|-------------12------|-10----10----------10----|
|-------------------|---------------------|----12----------------12-|
|-0-----------------|---------------------|-------------------------|
|-------------------|---------------------|-------------------------|


                                   B/A
   E   E   E   E   E   E   E   E   E  E  E  E  E  E  E  E
|-----------------10-------------|---------------------------|
|-------------10------10---------|----------6-----6----------|
|-10------10--------------10-----|-------7-----7--------7----|
|-----12----------------------12-|----9--------------9-------|
|--------------------------------|-0-------------------------|
|--------------------------------|---------------------------|


                        A5
                        Gtr III
                                                PM--------|
  E  E  E   E   H       E E E E E Q.    +E   E  E E E E E E
|----------10--^7----|----------------|------------------------|
|-------9------^6----|----------------|------------------------|
|----7---------^7----|--2-2-2-2-2-2---|-(2)--2--2-x-x-x-x-x----|
|-9------------^6----|--2-2-2-2-2-2---|-(2)--2--2-x-x-x-x-x----|
|--------------------|--0-0-0-0-0-0---|-(0)--0--0-x-x-x-x-x----|
|--------------------|----------------|------------------------|


                                       Verse
                                     Rock Q=144
                                   D5                       D5  C5Bb5
                         PM------|
  E E E E E Q.     +E  E E E e e e E    +Q   Q  H      H    E E E E
|----------------|-------------------||--------------|--------------|
|----------------|-------------------||--------------|--------------|
|-2-2-2-2-2-2----|-(2)-2-x-x-------7-||-(7)----------|------7-7-5-3-|
|-2-2-2-2-2-2----|-(2)-2-x-x-------7-||-(7)----------|------7-7-5-3-|
|-0-0-0-0-0-0----|-(0)-0-x-x-7-5-3-5-||-(5)----------|------5-5-3-1-|
|----------------|-------------------||--------------|--------------|


  +W           +H      E E E E   +Q      Q      H
|------------|-----------------|---------------------|
|------------|-----------------|---------------------|
|-(3)--------|-(3)-----7-7-5-7-|-(7)-----------------|
|-(3)--------|-(3)-----7-7-5-7-|-(7)-----------------|
|-(1)--------|-(1)-----5-5-3-5-|-(5)-----------------|
|------------|-----------------|---------------------|


         D5  C5Bb5                          D5  C5G/B
  H      E E E E   +W              +H       E E E E
|----------------|---------------|--------------------|
|----------------|---------------|--------------------|
|--------7-7-5-3-|-(3)-----------|-(3)------7-7-5-4---|
|--------7-7-5-3-|-(3)-----------|-(3)------7-7-5-5---|
|--------5-5-3-1-|-(1)-----------|-(1)------5-5-3-2---|
|----------------|---------------|--------------------|


       PM------|          PM                            PM-------|
                                      |-3-|
  +Q   e e e E e E    Q   e E +E   E  S S S E    +H     e  E  e  e
|------------------|---------------------------|--------------------|
|------------------|------------------------3--|-(3)----------------|
|-(4)--------x---5-|-(5)----2-(2)--2--3p2px-2--|-(2)-------7--------|
|-(5)--------5---5-|-(5)----2-(2)-----------0--|-(0)-------7--------|
|-(2)--2-2-2-2-2-3-|-(3)--3-4-(4)--------------|--------5--5--5--5--|
|------------------|---------------------------|--------------------|


  PM----------------|       ~~~
  e  e  E  e  e  e  e  E   +H.       +E  E   +Q     E   E  +H
|------------------------|-----------------|-------------------|
|------------------------|-----------------|-------------------|
|-------7--------------4-|-(4)-------(4)-5-|-(5)--------2--(2)-|
|-------7--------x-----5-|-(5)-------(5)-5-|-(5)--------2--(2)-|
|-5--5--5--5--5--5--3--2-|-(2)-------(2)-3-|-(3)----x---4--(4)-|
|------------------------|-----------------|-------------------|


                                      Verse
                                        ~~~     PM----------|
             |----3----|
  W          Q    Q    Q E  E  E  E    +Q    E  e  e  E  e  e
|----------|------------------------||------------------------|
|----------|-x\--/x\--/x------------||------------------------|
|-7--------|----------------------7-||-(7)---7--------7-------|
|-7--------|----------------3-----7-||-(7)---7--------7-------|
|-5--------|-------------5-----3--5-||-(5)---5--5--5--5--5--5-|
|----------|------------------------||------------------------|


  PM------------|             PM------------------------|
  e e  E  e e e e  E   +Q.    e e  E  e e   e e  E  e e e E  E
|--------------------|--------------------|--------------------|
|--------------------|--------------------|--------------------|
|------7-----------3-|-(3)---------3------|------3-----------7-|
|------7------3----3-|-(3)---------3------|------3------3----7-|
|-5-5--5--5-5---3--1-|-(1)----1-1--1--1-1-|-1-1--1--1-5---3--5-|
|--------------------|--------------------|--------------------|


   ~~~                                           PM----------|
  +Q.   E Q.   E   e e  E  e e e e  E    +Q.     e  e  e  e  e
|----------------|--------------------|------------------------|
|----------------|--------------------|------------------------|
|-(7)-----7------|------7-----------3-|--(3)-------------------|
|-(7)-----7------|------7------3----3-|--(3)-------------------|
|-(5)---x-5----x-|-5-5--5--5-5---3--1-|--(1)-----1--1--1--1--1-|
|----------------|--------------------|------------------------|


  PM--------|              ~
  e e E e e e e E   +Q     Q   +E   E  E  E   +Q    E E  +Q    E E
|-----------------|-------------------------|----------------------|
|-----------------|--------0---(0)--x-------|----------------------|
|-----3---------4-|-(4)----0---(0)-----x--5-|-(5)-----2--(2)-----7-|
|-----3-----x---5-|-(5)----0---(0)--------5-|-(5)-----2--(2)-----7-|
|-1-1-1-1-5-5-3-2-|-(2)----2---(2)--------3-|-(3)---x-4--(4)---x-5-|
|-----------------|-------------------------|----------------------|


                  \1
                        PM----|       ~~~
  +W              H     e  e  e  E   +H.       +E   E
|--------------|-------------------|--------------------|
|--------------|-------------------|--------------------|
|-(7)----------|-<7>-------------4-|-(4)-------(4)--5---|
|-(7)----------|-<7>-------3-----5-|-(5)-------(5)--5---|
|-(5)----------|-<5>----5-----3--2-|-(2)-------(2)--3---|
|--------------|-------------------|--------------------|


  +Q    E  E  +H      W            +W
|-------------------|------------|--------||
|-------------------|------------|--------||
|-(5)------2--(2)---|-7----------|-(7)----||
|-(5)------2--(2)---|-7----------|-(7)----||
|-(3)---x--4--(4)---|-5----------|-(5)----||
|-------------------|------------|--------||


 Chorus
  Half Time Q=72
  $
  Gtr III
  ~~        ~      ~~~~~~~~       ~      ~~~~~~~~      ~       ~
  Q.   S S  E  +E  Q    Q.   S S  E  +E  Q    Q.   S S E  +E   Q
|---------------------|---------------------|---------------------||
|---------------------|---------------------|---------------------||
|-2----3-5--3--(3)-2--|---------------------|---------------------||
|---------------------|-5----7-8--7--(7)-5--|-4----5-7-5--(5)--4--||
|---------------------|---------------------|---------------------||
|---------------------|---------------------|---------------------||
|
| Gtr IV
| ~~        ~      ~~~~~~~~       ~      ~~~~~~~~      ~       ~
| Q.   S S  E  +E  Q    Q.   S S  E  +E  Q    Q.   S S E  +E   Q
|---------------------|---------------------|---------------------||
|---------------------|---------------------|---------------------||
|---------------------|---------------------|---------------------||
|-4----5-7--5--(5)-3--|-2----3-5--4--(4)-2--|-1----2-4-2--(2)-----||
|---------------------|---------------------|------------------5--||
|---------------------|---------------------|---------------------||


  A tempo Q=144
                                             To Coda  &
  PM--|                                         PM--|
  e e e e e e e e   e e e e e e e e   e e e e e e e e
|-----------------|-----------------|------------------|
|-----------------|-----------------|------------------|
|-----------------|-----------------|------------------|
|-2-2-2-2-2-2-2-2-|-3-3-3-3-3-3-3-3-|-5-5-5-5-5-5-5-5--|
|-----------------|-----------------|------------------|
|-----------------|-----------------|------------------|
|
| PM----|                                       PM--|
| e e e e e e e e   e e e e e e e e   e e e e e e e e
|-----------------|-----------------|------------------|
|-----------------|-----------------|------------------|
|-----------------|-----------------|------------------|
|-4-4-4-4-4-4-4-4-|-5-5-5-5-5-5-5-5-|-7-7-7-7-7-7-7-7--|
|-----------------|-----------------|------------------|
|-----------------|-----------------|------------------|


  W
|---------------------------------------|
|---------------------------------------|
|---------------------------------------|
|-7-------------------------------------|
|---------------------------------------|
|---------------------------------------|
|
| W
|---------------------------------------|
|---------------------------------------|
|---------------------------------------|
|-4-------------------------------------|
|---------------------------------------|
|---------------------------------------|
|
| Gtr IV
|                                    ~~
|                  |--3--|  |---3----|
| Q  E  a  E  +E   S  S  S  S  S  E  E
|------10s12-(12)-14-12-14--------------|
|--------------------------15-----------|
|-----------------------------14-12-11--|
|---------------------------------------|
|-7-------------------------------------|
|---------------------------------------|


    D.S.
   +H.                                    E    E
|-------------------------------------------------||
|-------------------------------------------------||
|----------------------------------------------7--||
|--(7)-----------------------------------------7--||
|----------------------------------------------5--||
|-------------------------------------------------||
|
|  +H.                                   +E    E
|-------------------------------------------------||
|-------------------------------------------------||
|-------------------------------------------------||
|--(4)-----------------------------------(4)------||
|-------------------------------------------------||
|-------------------------------------------------||
|
|        |------6-------|  |----3----|
|  +Q    S  S  S  S  S  S  S  S  E   E    E    E
|-------------------------------------------------||
|-------------------------------------------------||
|-(11)--------------------------------------------||
|-------12-14-12-10-------------------------------||
|-------------------12p10-------------------------||
|-------------------------14p12-10--12---10\------||


 Verse
         PM----------------------|           PM------|
  +Q   E e e E e e   e e E e e e e E   +Q.   e e E e e
|------------------|-----------------|-----------------|
|------------------|-----------------|-----------------|
|-(7)--7-------7---|-----7---------3-|-(3)-------------|
|-(7)--7-------7---|-----7-----3---3-|-(3)-------------|
|-(5)--5-5-5-5-5-5-|-5-5-5-5-5---3-1-|-(1)---1-1-1-1-1-|
|------------------|-----------------|-----------------|


  PM--------|        ~~~   PM----|     PM----------|
  e e E e e e E E   +Q   E e e E e e   e e E e e e e E
|-----------------|------------------|-----------------|
|-----------------|------------------|-----------------|
|---------------7-|-(7)--7-----7---7-|-----7---------3-|
|-----------3---7-|-(7)--7-----7---7-|-----7-----3---3-|
|-1-1-1-1-5---3-5-|-(5)--5-5-5-5-5-5-|-5-5-5-5-5---3-1-|
|-----------------|------------------|-----------------|


            PM-------|  ~
  +Q.       e  e  e  e  E    +E   e  e  e  e  e  e  e
|--------------------------|----------------------------||
|--------------------------|----------------------------||
|-(3)----------------------|----------------------------||
|-(3)----------------------|----------------------------||
|-(1)-------1--1--1--1-----|----------------------------||
|-----------------------5--|-(5)--6--3--5--1--3--0--1---||


 Guitar Solo
  A7b9
   |-------------12:8---------------|  |----------------12:8-----------------|
   S  S  S  S  S  S  S  S  S  S  S  S  S  S  S  S   a   S  S  S  S  S  S  S  S
|------------------------------------------------------------------------------|
|-14h15p14---------------------------------------------------------------------|
|----------17-15p14----15p14----------------------(14)-15h17p15p14-------------|
|-------------------17-------17p15p14----14h15h17------------------17p15p14----|
|-------------------------------------17------------------------------------17-|
|------------------------------------------------------------------------------|


   |------6-------|  |--3--|        |------6-------|
   S  S  S  S  S  S  S  S  S  S  S  S  S  S  S  S  S  S  S  S      +S
|----------------------------13----13h15h17p15p13-12-15p13-12b14==(12)r=|
|-------------------14h15h17----17--------------------------------------|
|----------14h15h17-----------------------------------------------------|
|-14h15h17--------------------------------------------------------------|
|-----------------------------------------------------------------------|
|-----------------------------------------------------------------------|


  Dm/A
                            ~~~
   +E.   S  E   E   E   E   E.   S
|-(12)-----17------17s=22--22---17-|
|-------15-----15------------------|
|----------------------------------|
|----------------------------------|
|----------------------------------|
|----------------------------------|


                           |--3--|
   S   S   S   S   S   S   S  S  S   Q.      +E
|-13------17p=13---------------------------------|
|-----15----------14--10--10h15------------------|
|-------------------------------14--10b12r==(10)-|
|------------------------------------------------|
|------------------------------------------------|
|------------------------------------------------|


  D/A
               |-----5-----|  |-------------12:8---------------|
   a   E.   S  S  S  S  S  S  S  S  S  S  S  S  S  S  S  S  S  S
|----------13h15h19p15h19p16----16h19h22p16h19p16----16h19h22p16h|
|-(x)S15---------------------18-------------------18-------------|
|----------------------------------------------------------------|
|----------------------------------------------------------------|
|----------------------------------------------------------------|
|----------------------------------------------------------------|


                                     ~~~~~~
   |-------6-------|
   S  S  S  S  S   S  +Q        +Q   Q
|-19p16----16h19s=22-(22)b24---(22)-22pb24--|
|-------18----------------------------------|
|-------------------------------------------|
|-------------------------------------------|
|-------------------------------------------|
|-------------------------------------------|


  A
   ~~~~~~~~~~~~~~~~~~~~~~~~~~~~~~~~~~~~~~~~~~~~~~~~~~~~~~
   Q       Q       Q       Q         a           a
|-22pb24--22pb24--22pb24--22pb24--(<22>)pb24--(<22>)pb24--|
|---------------------------------------------------------|
|---------------------------------------------------------|
|---------------------------------------------------------|
|---------------------------------------------------------|
|---------------------------------------------------------|


                                             |------6------|
   S  S  S  S  S  S  S  S  S  S  T  T  T  T  S  S  S  S  S S
|-17h18-15h18-13h18-12h18--------------------------------------|
|-------------------------15h18-14h15h17-16p14-----------------|
|----------------------------------------------17-16p14----x---|
|-------------------------------------------------------17-----|
|--------------------------------------------------------------|
|--------------------------------------------------------------|


  A7b9
          \1     /
                                ~~~~
   E     +E     +E    E        +H
|-------------------------------------|
|-------------------------------------|
|-12b14-(12)---(12)--12pb14===(12)----|
|-------------------------------------|
|-------------------------------------|
|-------------------------------------|


                                   |----------10:8------------|
   +E        T  T  S   S  S  S  S  S  S  S  S  S  S  S  S  S  S
|-----------12s17s18p=17-15---------------------------------------|
|---------------------------18p17p15p14---------------------------|
|-(12)pb14------------------------------17p15p14------------------|
|------------------------------------------------17-15p14----15---|
|---------------------------------------------------------17------|
|-----------------------------------------------------------------|


  Dm/A
                                 ~~~
   |----------10:8------------|       |--3--|
   S  S  S  S  S  S  S  S  S  S  Q.   S  S  S
|---------------------------------------------|
|---------------------------------------------|
|------------------------------------------14S|
|-14----------14-15-17-15-14----14------15----|
|----17-16-17----------------17------17-------|
|---------------------------------------------|


                                       ~~~~~~~~
                        |-----5-----|
   S  S  S  S  S  S  E  T  T  T  T  T  E   +Q
|-------17-22p17-------------17s16s17-17--(17)----|
|----18----------18-------18----------------------|
|-19----------------19--x-------------------------|
|-------------------------------------------------|
|-------------------------------------------------|
|-------------------------------------------------|


  D/A
         ~~~
               |----6----|  |------6-------|
   +Q    Q     E  S  E   S  S  S  S  S  S  S
|-(17)--17\---------16--19h22p19p16h19h22p16h|
|----------------18--------------------------|
|-------------19-----------------------------|
|--------------------------------------------|
|--------------------------------------------|
|--------------------------------------------|


                                                ~~~~
   |------6-------|  |------6-------|
   S  S  S  S  S  S  S  S  S  S  S  S  S  E.   +Q
|-19h22p15h19p16S13-16p13h16p13h16p13S10-13---(13)---|
|-----------------x----------------------------------|
|----------------------------------------------------|
|----------------------------------------------------|
|----------------------------------------------------|
|----------------------------------------------------|


  A
                                              ~~~~~~
   |-------------14:8---------------|  |-3--|         |----3-----|
   S  S  S  S S  S S  S  S S S S  S S  S S  S E +E    S  T   T   S
|-12s13p12p10S9h10p9---------------------------------10-10s(13)s17-|
|--------------------11-10p8---8-11p8----8-------------------------|
|----------------------------9--------10---10-9-(9)----------------|
|------------------------------------------------------------------|
|------------------------------------------------------------------|
|------------------------------------------------------------------|


   |--------------12:8----------------|   |---------------12:8----------------|
   S  S  S  S  S   S   S  S  S  S  S  S   S   S  S  S  S  S  S  S  S   S   S  S
|-17h18p17p15-------------------------------------------------------------------|
|-------------18-(17)-15-14-15-17-15-13-----------------------------------------|
|---------------------------------------(15)-14-12----14-12---------------------|
|--------------------------------------------------15-------15-14-12------12-14-|
|--------------------------------------------------------------------(15)-------|
|-------------------------------------------------------------------------------|


   |--------------12:8----------------|  |----------11:8------------|
   S  S  S  S  S   S   S  S  S  S  S  S  S  S  S  S S  S S  S  S S  S
|------------------------12-13h15p13p12s10-13p12p10s9h10p9-------------|
|-------------12-(13)-15-----------------------------------11p10p8-----|
|----12-14-15------------------------------------------------------10h=|
|-15-------------------------------------------------------------------|
|----------------------------------------------------------------------|
|----------------------------------------------------------------------|


                         ~~~~~~~~
               |--3--|
   S  S S  s   S S   S   E   +Q     e    E
|------------------------------------------------||
|------------------------------------------------||
|-12p10p9--x--10p9-------9---(9)----0---17pb19===||
|---------11--------12---------------------------||
|------------------------------------------------||
|------------------------------------------------||
|
|                                                Gt
|                      W
|------------------------------------------------||
|------------------------------------------------||
|------------------------------------------------||
|------------------------------------------------||
|------------------------------------------------||
|------------------------------------------------||


 Harmony Guitar Interlude
  G5
                         ~~~~
   +Q        +E    E     H
|------------------------------|
|------------------------------|
|-(17)r=====(17)p=15----15-----|
|------------------------------|
|------------------------------|
|------------------------------|
|
|r IV
|                        ~~~~
|   Q        +E    E    +H
|------------------------------|
|--17pb18r==(17)p=15---(15)----|
|------------------------------|
|------------------------------|
|------------------------------|
|------------------------------|


                                A5          Bb5
   +E    S  S  S  S  S  S  S  S  S  S  S  S  S  S
|-------------------------------------------------|
|-------------15-------15-17----15-17-18-15-17-18-|
|-(15)--15-17----15-17-------17-------------------|
|-------------------------------------------------|
|-------------------------------------------------|
|-------------------------------------------------|
|
|  +E    S  S  S  S  S  S  S  S  S  S  S  S  S  S
|-------------------------15-------15-17----15-17-|
|-(15)--15-17-18-15-17-18----17-18-------18-------|
|-------------------------------------------------|
|-------------------------------------------------|
|-------------------------------------------------|
|-------------------------------------------------|


                                          C5
               |-----6-----|    |----3-----|
   S  S  S  S  S  S  S  S  E   +Q     Q    Q
|-15------------------------------------------|
|----18-17-15-18-17-15-14-15--(15)---17---18--|
|---------------------------------------------|
|---------------------------------------------|
|---------------------------------------------|
|---------------------------------------------|
|
|              |-----6-----|    |----3-----|
|  S  S  S  S  S  S  S  S  E   +Q     Q    Q
|-18-17-15----17-15------------------15---17--|
|----------18-------18-17-18--(18)------------|
|---------------------------------------------|
|---------------------------------------------|
|---------------------------------------------|
|---------------------------------------------|


  C5                       Dm
                            ~~~~~~~~~~~~~~~~~~~~~~~~~~~~~~~~~
   |---3---|   |---3---|
   Q   Q   Q   Q   Q   Q    Q.         E       +Q     Q
|---------15-------------|-20pb22=====20pb22==(20)---20pb22===|
|-17--18------18--17--18-|------------------------------------|
|------------------------|------------------------------------|
|------------------------|------------------------------------|
|------------------------|------------------------------------|
|------------------------|------------------------------------|
|
|                           ~~~~~~~~~~~~~~~~~~~~~~~~~~~~~~~~~
|  |---3---|   |---3---|
|  Q   Q   Q   Q   Q   Q    Q.         E       +Q     Q
|-15--17--18--17--15--17-|-20pb22=====20pb22==(20)---20pb22===|
|------------------------|------------------------------------|
|------------------------|------------------------------------|
|------------------------|------------------------------------|
|------------------------|------------------------------------|
|------------------------|------------------------------------|


                              D.S. al Coda
        ~~~~~~~~~~~~~~~~~~~~~~~~~~~~
   +E   Q.         Q         E       +E
|-(20)-20pb22=====20pb22====20pb22==(20)---||
|------------------------------------------||
|------------------------------------------||
|------------------------------------------||
|------------------------------------------||
|------------------------------------------||
|
|       ~~~~~~~~~~~~~~~~~~~~~~~~~~~~
|  +E   Q.         Q         E       +E
|-(20)-20pb22=====20pb22====20pb22==(20)---||
|------------------------------------------||
|------------------------------------------||
|------------------------------------------||
|------------------------------------------||
|------------------------------------------||


  &
  ~    PM----|     PM------|                  PM----------|
  Q  E e e E e E   e e E e e  E  e  E   +Q    e  e  e  e  e  E
|----------------|--------------------|------------------------|
|----------------|--------------------|------------------------|
|-7--7-----7---7-|-----7------------3-|-(3)------------------3-|
|-7--7-----7---7-|-----7------x-----3-|-(3)------------------3-|
|-5--5-5-5-5-5-5-|-5-5-5-5-5-----3--1-|-(1)---1--1--1--1--1--1-|
|----------------|--------------------|------------------------|


                                                      PM----|
  +E   e  E  E  +E   Q    E   +Q    Q   +H      +H    e  e  e  E
|---------------------------|-----------------|------------------|
|---------------------------|-----------------|------------------|
|-(3)-----3--2--(2)--2----7-|-(7)---7---(7)---|-(7)------------3-|
|-(3)-----3--2--(2)--2----7-|-(7)---7---(7)---|-(7)------2-----3-|
|-(1)--1--1--0--(0)--0----5-|-(5)---5---(5)---|-(5)---5-----3--1-|
|---------------------------|-----------------|------------------|


                                       Out-Chorus
       PM------|                             PM--|
  +Q   e e e e e E   Q.   E +Q   E E    +Q   e e e E e E
|------------------|-----------------||-------------------|
|------------------|-----------------||-------------------|
|-(3)------------3-|-3----2-(2)----7-||-(7)--------7------|
|-(3)------------3-|-3----2-(2)--x-7-||-(7)--------7------|
|-(1)--1-1-1-1-1-1-|-1----0-(0)--x-5-||-(5)--5-5-5-5-5----|
|------------------|-----------------||----------------x/-|


         PM--|            PM-------|
   Q  Q  e e e E   +Q.    e  e  e  e  E   +Q.     E +Q.     E
|----------------|----------------------|---------------------|
|----------------|----------------------|---------------------|
|-----7--------3-|-(3)----------------3-|-(3)-----2-(2)-----7-|
|-----7----3---3-|-(3)----------------3-|-(3)-----2-(2)-----7-|
|-----5--5---3-1-|-(1)----1--1--1--1--1-|-(1)-----0-(0)-----5-|
|-/x-------------|----------------------|---------------------|


                               PM--|           PM------| ~
  +Q    Q  +H       a  Q    Q  E E E  E   +Q   e e e e e E
|------^5--(5)----|-xs10--^10-----------|-------------------|
|------^6--(6)----|-xs10--^10-----------|-------------------|
|-(7)--^7--(7)----|-xs10--^10---------3-|-(3)------------3--|
|-(7)--^7--(7)----|-xs12--^-x----3----3-|-(3)------------3--|
|-(5)--^5--(5)----|------------5---3--1-|-(1)--1-1-1-1-1-1--|
|-----------------|---------------------|-------------------|


             ~~~
  +Q.    E  +Q.    E   +H.      E  E
|--------------------|---------------|
|--------------------|---------------|
|-(3)----2--(2)----7-|-(7)-----------|
|-(3)----2--(2)----7-|-(7)-----------|
|-(1)----0--(0)----5-|-(5)------x--x-|
|--------------------|---------------|


                               ~~
  E  S  S  S  S  S  S  E       E  +E      E
|---------19p13------------------------------|
|------15-------15---------------------------|
|---14-------------14-10pb12--10--(x)\----3--|
|-----------------------------------------3--|
|-----------------------------------------1--|
|--------------------------------------------|


       PM------|      ~~~
                                                                   |--3--|
  +Q   e e e e e E   +Q.    E +Q.     E   +Q.     a  E     +Q      E  E  E
|------------------|--------------------|-------------------------10-13s17-|
|------------------|--------------------|---------xs13b15-(13)-------------|
|-(3)------------3-|-(3)----2-(2)-----7-|-(7)------------------------------|
|-(3)------------3-|-(3)----2-(2)-----7-|-(7)------------------------------|
|-(1)--1-1-1-1-1-1-|-(1)----0-(0)-----5-|-(5)------------------------------|
|------------------|--------------------|----------------------------------|


                      ~~               PM----------|       ~~~
   S   S  S  S  E  E  Q  +E  E   +Q    e  e  e  e  e  E   +Q.     E +Q.      E
|-14p--------------------------|------------------------|----------------------|
|-----15-----------------------|------------------------|----------------------|
|--------14------------------3-|-(3)------------------3-|-(3)-----2-(2)------7-|
|-----------17-15-14-15--(x)-3-|-(3)------------------3-|-(3)-----2-(2)------7-|
|----------------------------1-|-(1)---1--1--1--1--1--1-|-(1)-----0-(0)------5-|
|------------------------------|------------------------|----------------------|


                         PM------|             PM------|
  +Q.    E +Q.   E   +E  e E e e e E E   +E  E e e e e e E   +Q.   E +Q.  E
|------------------|-------------------|-------------------|----------------|
|------------------|-------------------|-------------------|----------------|
|-(7)----7-(7)-----|-------7---------3-|-(3)-------------3-|-(3)---2-(2)--7-|
|-(7)----7-(7)-----|-------7-----3---3-|-(3)-------------3-|-(3)---2-(2)--7-|
|-(5)----5-(5)---5-|-(5)-5-5-5-5---3-1-|-(1)-x-1-1-1-1-1-1-|-(1)---0-(0)--5-|
|------------------|-------------------|-------------------|----------------|


        Dadd2                     Bb5      A5      D5
                                                   >
                            PM--|
  +Q.   S S Q.   E   +H     e e e E   +Q.  E +Q.   E   +Q    E  E  H
|------------------|----------------|----------------|---------------*|
|---------5--------|----------------|----------------|---------------*|
|-(7)-------7----7-|-(7)----------3-|-(3)--2-(2)---7-|-(7)-----------*|
|-(7)---7--------7-|-(7)------3---3-|-(3)--2-(2)---7-|-(7)-----------*|
|-(5)--------------|--------5---3-1-|-(1)--0-(0)---5-|-(5)---x--x----*|
|------------------|----------------|----------------|---------------*|



Duration Legend
---------------
W - whole; H - half; Q - quarter; E - 8th; S - 16th; T - 32nd; X - 64th; a - acciaccatura
+ - note tied to previous; . - note dotted; .. - note double dotted
Uncapitalized letters represent notes that are staccato (1/2 duration)
Irregular groupings are notated above the duration line
Duration letters will always appear directly above the note/fret number it represents the
duration for.  Duration letters with no fret number below them represent rests.  Multi-
bar rests are notated in the form Wxn, where n is the number of bars to rest for.  Low
melody durations appear below the staff

Tablature Legend
----------------
 h   - hammer-on
 p   - pull-off
 b   - bend
 pb  - pre-bend
 r   - bend release (if no number after the r, then release immediately)
 /\  - slide into or out of (from/to "nowhere")
 s   - legato slide
 S   - shift slide
 - natural harmonic
[n]  - artificial harmonic
n(n) - tapped harmonic
 ~   - vibrato
 tr  - trill
 T   - tap
 TP  - trem. picking
 PM  - palm muting
\n/  - tremolo bar dip; n = amount to dip
 \n  - tremolo bar down
 n/  - tremolo bar up
/n\  - tremolo bar inverted dip
 =   - hold bend; also acts as connecting device for hammers/pulls
 <> - volume swell (louder/softer)
 x   - on rhythm slash represents muted slash
 o   - on rhythm slash represents single note slash

Misc Legend
-----------
 |  - bar
||  - double bar
||o - repeat start
o|| - repeat end
*|  - double bar (ending)
 :  - bar (freetime)
 $  - Segno
 &  - Coda
Tempo markers -  = BPM(8/16=s8/s16), where s8 = swing 8ths, s16 = swing 16ths





Comments


Popular Yngwie Malmsteen tabs & chords
Acoustic Tabs
Braveheart 2 3 Tabs
Demon Driver 1 Tabs
Evil Eye Intro Tabs
Memories 1 Tabs
Now Is The Time Tabs
Now Your Ships Are Burned Tabs
See You In Hell Tabs
The Seventh Sign 1 Tabs
Unholy Virginity Tabs


Song lyrics



↑ Back to top | Tablatures and chords are parodies/interpretations of the original songs. You may use it for private study, scholarship, research or language learning purposes only
© 2014 AZChords.com Contact us | Privacy policy | DMCA | Add/correct tabs | Request tabs | Top 50 tabs