>
 >
Don't Let It End

Don't Let It End Guitar Tabs

Yngwie Malmsteen - Don't Let It End chords, tabs, tablatures, lyrics

Guitar lessons | Add/correct | Request | Top 50 tabs Artists:  A B C D E F G H I J K L M N O P Q R S T U V W X Y Z 0-9

Don't Let It End Guitar Tabs – Yngwie Malmsteen

CD, Sheet music, Poster

Do you like Don't Let It End? Share with your friends now
Tabs
Hope you like it enjoy !!
(/distortion...)

|------------0--------------|----0--------------0-----|----------0-------
|---------6--------6--------|-6--------6-----------6--|-------6-------6--
|---------------7--------7--|-------7--------7--------|------------7-----
|-----7---------------7-----|-------------7-----------|----8-------------
|--5------------------------|-------------------------|-5----------------
|---------------------------|-------------------------|------------------



--------|----0-----------------0--------|----------0--------------------|
--------|-6--------6--------6-----6-----|-------6--------6--------------|
-----7--|-------7--------7-----------7--|-------------7--------7--------|
--8-----|-------------8-----------------|----7--------------7-----------|
--------|-------------------------------|-5-----------------------------|
--------|-------------------------------|-------------------------------|



|-----0---------------0-----|------------0--------------|----0-----------
|--6--------6------------6--|---------6--------6--------|-6--------6-----
|--------7---------7--------|---------------7--------7--|-------7--------
|---------------7-----------|-----8---------------8-----|-------------8--
|---------------------------|--5------------------------|----------------
|---------------------------|---------------------------|----------------


                   Verse
--------0--------|----------0--------------|-----0--------------0-------|
-----6-----6-----|-------6--------6--------|--6--------6-----------6----|
--7-----------7--|-------------7--------7--|--------7--------7----------|
-----------------|----7--------------7-----|--------------7-------------|
-----------------|-5-----------------------|----------------------------|
-----------------|-------------------------|----------------------------|



|----------0--------------|----0-----------------0--------|----------0---
|-------6--------6--------|-6--------6--------6-----6-----|-------6------
|-------------7--------7--|-------7--------7-----------7--|--------------
|----8--------------8-----|-------------8-----------------|----7---------
|-5-----------------------|-------------------------------|-5------------
|-------------------------|-------------------------------|--------------



---------------|----0--------------0-----|----------0-------------------|
-----6---------|-6--------6-----------6--|-------6--------6-------------|
--7---------7--|-------7--------7--------|-------------7--------7-------|
---------7-----|-------------7-----------|----8--------------8----------|
---------------|-------------------------|-5----------------------------|
---------------|-------------------------|------------------------------|



|-----0--------------0-----|-------------12-------------|----9-----------
|--6--------6-----------6--|-----------------11---------|-------11-------
|--------7--------7--------|----------9----------9------|-----------9----
|--------------8-----------|------11----------------11--|----------------
|--------------------------|--0-------------------------|-0--------------
|--------------------------|----------------------------|----------------



--12------------|-----------------10--------------|----12--13--15--17--13
-----11---------|-----10--------------10----------|----------------------
---------14-----|---------10--------------10------|----------------------
------------11--|-12----------12--------------12--|----------------------
----------------|---------------------------------|-0--------------------
----------------|---------------------------------|----------------------



----------|--------------13-----------|------------7----|-----------12---
--15------|-----------------12--------|---------9--6----|--------15------
------14--|----------13--------13-----|-----10-----7----|-----14---------
----------|------12---------------12--|-9----------6----|----------------
----------|-0-------------------------|-----------------|--0-------------
----------|---------------------------|-----------------|----------------



--17--12--------|-17-12------------------|------9-----12----------------|
---------15-----|-------14-10---10-------|---------8------11------------|
------------14--|-------------9----9-----|--0-----------------12--------|
----------------|--------------------11--|------------------------------|
----------------|------------------------|--0---------------------------|
----------------|------------------------|------------------------------|



|-----12------12------------|-----------------10------------------------|
|-11------10------------11--|-------------10------10--------------------|
|-----------------12--------|-10------10--------------10----------------|
|---------------------------|-----12----------------------12------------|
|---------------------------|-------------------------------------------|
|---------------------------|-------------------------------------------|



|-----------------10--------------|--------------------------|-----------
|-------------10------10----------|-----------6-----6--------|-------9---
|-10------10--------------10------|--------7-----7--------7--|----7------
|-----12----------------------12--|-----9--------------9-----|-9---------
|---------------------------------|--0-----------------------|-----------
|---------------------------------|--------------------------|-----------


              Electric guitars 
-10---7~----|----------------------|-----------------------|------------|
------6~----|-play-3x--------------|-----------------------|------------|
------7~----|--2--2--2--2--2--2----|--2--x--x-----------7--|-------7----|
------6~----|--2--2--2--2--2--2----|--2--x--x-----------7--|-------7----|
------------|--0--0--0--0--0--0----|--0--x--x--7--5--3--5--|-------5----|
------------|----------------------|-----------------------|------------|


I tried so hard to make it right...

|---------------------|------------|-------------------|----------------|
|---------------------|------------|-------------------|----------------|
|----7--7--5--3-------|---3--------|----7--7--5--7-----|--7-------------|
|----7--7--5--3-------|---3--------|----7--7--5--7-----|--7-------------|
|----5--5--3--1-------|---1--------|----5--5--3--5-----|--5-------------|
|---------------------|------------|-------------------|----------------|



|------------------|-------------|---------------------|-----------------|
|------------------|-------------|---------------------|-----------------|
|---7--7--5--3-----|---3---------|-------7--7--5--4----|----------x----5-|
|---7--7--5--3-----|---3---------|-------7--7--5--5----|----------5----5-|
|---5--5--3--1-----|---1---------|-------5--5--3--2----|-2--2--2--2--2-3-|
|------------------|-------------|---------------------|-----------------|



|--------------------------|---------------|----------------------------|
|-----------------------3--|---------------|----------------------------|
|-------2-----2--3p2px--2--|-----7---------|-------7--------------4-----|
|-------2---------------0--|-----7---------|-------7--------x-----5-----|
|---3---4------------------|--5--5--5--5---|-5--5--5--5--5--5--3--2-----|
|--------------------------|---------------|----------------------------|



|----------------|--------------|-------------|--------------------------|
|----------------|--------------|-------------|--x\/x\x/p.s.-------------|
|--------5-------|--------2-----|---7---------|------------------------7-|
|--------5-------|--------2-----|---7---------|------------------3-----7-|
|--------3-------|----x---4-----|---5---------|---------------5-----3--5-|
|----------------|--------------|-------------|--------------------------|



|---------------------|--------------------------|----------------------|
|---------------------|--------------------------|----------------------|
|---7--------7--------|-------7---------------3--|--------3-------------|
|---7--------7--------|-------7--------3------3--|--------3-------------|
|---5--5--5--5--5--5--|-5--5--5--5--5-----3---1--|--1--1--1--1--1-------|
|---------------------|--------------------------|----------------------|



|--------------------------|-------------------|------------------------|
|--------------------------|-------------------|------------------------|
|--------3--------------7--|--~-------7--------|-------7--------------3-|
|--------3--------3-----7--|--~-------7--------|-------7--------3-----3-|
|--1--1--1--1--5-----3--5--|--~---x---5-----x--|-5--5--5--5--5-----3--1-|
|--------------------------|-------------------|------------------------|



|----------------------|-------------------------|----------------------|
|----------------------|-------------------------|----0~---------x------|
|---3------------------|-------3--------------4--|----0~------------x-5-|
|---3------------------|-------3--------x-----5--|----0~--w/bar-------5-|
|---1---1--1--1--1--1--|-1--1--1--1--5--5--3--2--|----2~--------------3-|
|----------------------|-------------------------|----------------------|



|-------------------|----------------------------|-----------------------|
|-------------------|----------------------------|-----------------------|
|-------2--------7--|---7*------------------4----|------------------5----|
|-------2--------7--|---7*w/bar-------3-----5----|-w/bar------------5----|
|--x----4----x---5--|--------------5-----3--2----|------------------3----|
|-------------------|----------------------------|-----------------------|



|---------------|------------------------|------------------------------|
|---------------|------------------------|------------------------------|
|-------2-------|----7-------------------|------------------------------|
|-------2-------|----7-------------------|------------------------------|
|--x----4-------|----5-------------------|------------------------------|
|---------------|------------------------|------------------------------|



Interlude
   No please don't end it now...
|-----------------------|------------------------|----------------------|
|-----------------------|------------------------|----------------------|
|---2~----3--5--3~--2~--|------------------------|----------------------|
|-----------------------|--5~----7--8--7~---5~---|--4~----5--7--5~--4~--|
|-----------------------|------------------------|----------------------|
|-----------------------|------------------------|----------------------|



|------------------------|------------------------|----------------------|
|------------------------|------------------------|----------------------|
|------------------------|------------------------|----------------------|
|-2--2--2--2--2--2--2--2-|-3--3--3--3--3--3--3--3-|-5--5--5--5--5--5--5-5|
|------------------------|------------------------|----------------------|
|------------------------|------------------------|----------------------|



|--------x/17--14h17p14---------------|----------------------------------
|-----------------------15------------|----------------------------------
|--------------------------14-12-11~--|----------------------------------
|---7---------------------------------|--12h14p12p10---------------------
|-------------------------------------|--------------12p10---------------
|-------------------------------------|--------------------14p12-10-12---



--------------|---------------------|-------------------------|----------
--------------|---------------------|-------------------------|----------
--------7-----|---7-----------7-----|-------7--------------3--|----------
--------7-----|---7-----------7-----|-------7--------3-----3--|----------
--------5-----|---5--5--5--5--5--5--|-5--5--5--5--5-----3--1--|-1--1--1--
--10\---------|---------------------|-------------------------|----------



--------|--------------------------|------------------------|------------
--------|--------------------------|------------------------|------------
--------|-----------------------7--|----7--------7-----7----|-------7----
--------|-----------------3-----7--|----7--------7-----7----|-------7----
--1--1--|--1--1--1--1--5-----3--5--|----5--5--5--5--5--5----|-5--5--5----
--------|--------------------------|------------------------|------------



-----------------|-------------------|----------------------|
-----------------|-------------------|----------------------|
--------------3--|-------------------|----------------------|
--------3-----3--|-------------------|----------------------|
--5--5-----3--1--|--1--1--1--1-------|----------------------|
-----------------|--------------5~---|-6--3--5--1--3--0--1--|



|------------------------------------------------------------------------|
|-14h15p14---------------------------------------------------------------|
|----------17-15p14----15p14----------------------15h17p15p14------------|
|-------------------17-------17p15p14----14h15h17-------------17p15p14---|
|-------------------------------------17-------------------------------17|
|------------------------------------------------------------------------|



|----------------------------13-----13h15h17p15p13-12-15p13--12bf-------|
|-------------------14h15h17----17--------------------------------------|
|----------14h15h17-----------------------------------------------------|
|-14h15h17--------------------------------------------------------------|
|-----------------------------------------------------------------------|
|-----------------------------------------------------------------------|



|-rb12------17------17/22---22~---17--|-13----17p13---------------------|
|-------15------15--------------------|----15-------14/10-10h15---------|
|-------------------------------------|-------------------------14p10bf-|
|-------------------------------------|---------------------------------|
|-------------------------------------|---------------------------------|
|-------------------------------------|---------------------------------|



|-13h16h19p16h19p16----16h19h22p16h19p16----16h19h22p16|h19p16----16h19--
|-------------------18-------------------18------------|-------18--------
|------------------------------------------------------|-----------------
|------------------------------------------------------|-----------------
|------------------------------------------------------|-----------------
|------------------------------------------------------|-----------------



-/22bf---22bf~---|-22bf~--22bf~--22bf~--22*--\--|-17h18-15h18-13h15-12h18
-----------------|------------------------------|------------------------
-----------------|------------------------------|------------------------
-----------------|------------------------------|------------------------
-----------------|------------------------------|------------------------
-----------------|------------------------------|------------------------



--------------------------------------|---------------------------------|
-15h18-14h15h17-15p14-----------------|---------------------------------|
----------------------17-15p14-----x--|-12bf--rb12--12bf~---------------|
-------------------------------17-----|---------------------------------|
--------------------------------------|---------------------------------|
--------------------------------------|---------------------------------|



|-12/17/18p17-15-------------------------------------|-------------------
|----------------18p17p15p14-------------------------|-------------------
|----------------------------17p15p14----------------|-------------------
|-------------------------------------17-15p14----15-|-14----------14-15-
|----------------------------------------------17----|----17-16-17-------
|----------------------------------------------------|-------------------



-----------------------------|------17--22p17-------------17\16/17-17~---|
-----------------------------|---18-----------18-------18----------------|
--------------------------14/|19-----------------19--x-------------------|
--17-15-14----14~------15----|-------------------------------------------|
-----------17-------17-------|-------------------------------------------|
-----------------------------|-------------------------------------------|



|-17~\--------16--19h22p19p16h19h22p16-|h19h22p16h19p16\13--16p13h16p13--
|----------18--------------------------|-----------------x---------------
|-------19-----------------------------|---------------------------------
|--------------------------------------|---------------------------------
|--------------------------------------|---------------------------------
|--------------------------------------|---------------------------------



--16p13\10--13--~~~---|-12/13p12p10\9h10p9-------------------------------
----------------------|--------------------11-10p8---8-11p8----8---------
----------------------|----------------------------9--------10---10--9~--
----------------------|--------------------------------------------------
----------------------|--------------------------------------------------
----------------------|--------------------------------------------------



-10--10/13/17--|-17h18p17p15---------------------------------------------
---------------|-------------18-17-15-14-15-17-15-13---------------------
---------------|-------------------------------------15-14-12----14-12---
---------------|----------------------------------------------15---------
---------------|---------------------------------------------------------
---------------|---------------------------------------------------------



--------------------|----------------------12-13h15p13p12\10--13p12p10\9-
--------------------|-------------12-13-15-------------------------------
--------------------|----12-14-15----------------------------------------
-15-14-12----12-14--|-15-------------------------------------------------
----------15--------|----------------------------------------------------
--------------------|----------------------------------------------------



-h10p9-------------|----------------------------------------------------|
-------11p10p8-----|----------------------------------------------------|
----------------10h|12p10p9-x--10p9-----9~-----0-------17bf-------------|
-------------------|-------11-------12----------------------------------|
-------------------|----------------------------------------------------|
-------------------|----------------------------------------------------|



|---------------|-------------------------------------------|-15---------
|---------------|-------15-------15-17----15-17-18-15-17-18-|----18-17-15
|--rb17p15~~~---|-15-17----15-17-------17-------------------|------------
|---------------|-------------------------------------------|------------
|---------------|-------------------------------------------|------------
|---------------|-------------------------------------------|------------



----------------------------|---------15----------|-20bf--20bf--20bf-----|
-18-17-15-14-15----17---18--|--17--18----18-17-18-|----------------------|
----------------------------|---------------------|----------------------|
----------------------------|---------------------|----------------------|
----------------------------|---------------------|----------------------|
----------------------------|---------------------|----------------------|



|-20bf--20bf--20bf--|
|-------------------|
|-------------------|
|-------------------|
|-------------------|
|-------------------|





Comments


Popular Yngwie Malmsteen tabs & chords
Deja Vu Bass Tabs
Let The Good Times Roll Bass Tabs
Dark Star Tabs
Disciples Of Hell Tabs
Dragonfly Tabs
Dream On Tabs
Evil Eye Tabs
Evil Eye 2 Tabs
Far Beyond The Sun Tabs
Queen Is In Love Tabs


Song lyrics



↑ Back to top | Tablatures and chords are parodies/interpretations of the original songs. You may use it for private study, scholarship, research or language learning purposes only
© 2014 AZChords.com Contact us | Privacy policy | DMCA | Add/correct tabs | Request tabs | Top 50 tabs