» » »

Black Star Tabs (ver.3)

Artists:  A B C D E F G H I J K L M N O P Q R S T U V W X Y Z # 

Black Star Tabs (ver.3)

Yngwie Malmsteen
Rating:
0/5 (0 votes)

Hard to play? Try these video lessons and learn fast.
                black star tab by yngwie malmsteen

 |       |       |       |        |       |       |       |        
|----------------7---------------|--------------------------------|
|----------------7---------------|8-----------7---5-------4h5h4h5h|
|----------------8---------------|--------------------------------|
|--------------------------------|------------------------4-------|
|----------------9---------------|7-------------------------------|
|--------------------------------|--------------------------------|
 
 |       |       |       |        |       |       |       |        
|--------------------------------|3-------4-----------------------|
|4-------2---4---5-----------7---|--------5-----------------------|
|--------------------------------|--------4-----------------------|
|--------------------------------|--------------------------------|
|--------0-----------------------|--------------------------------|
|----------------3---------------|--------4-----------------------|
 
 |       |       |       |        |       |       |       |        
|5-----------------------6-------|----------------7---------------|
|5-----------------------7-------|----------------8-------7-------|
|7-------5h7h5h4h5-------6-------|----------------9-------8-------|
|--------------------------------|--------------------------------|
|--------------------------------|--------------------------------|
|5-----------------------6-------|6---7---9-------7---------------|
 
 |       |       |       |        |       |       |       |        
|--------------------------------|----------------------------0---|
|5-------4h5h4h5h4h5h4h5h4-------|5-----------------------0-------|
|6-------4-----------------------|--------------------0-----------|
|--------------------------------|----------------4---------------|
|--------------------------------|------------2-------------------|
|--------------------------------|--------0-----------------------|
 
 |       |       |       |        |       |       |       |        
|------------------------12{-----|--------------------------------|
|--------------------------------|--------7{--------------7{------|
|--------------------------------|5{--------------7{--------------|
|--------------------------------|--------------------------------|
|--------------------------------|--------------------------------|
|0-------------------------------|--------------------------------|
 
 |       |       |       |        |       |       |       |        
|12{-----------------------------|----------------12{-------------|
|----------------7{--------------|7{------------------------------|
|------------------------5{------|--------7{----------------------|
|--------------------------------|--------------------------------|
|--------------------------------|--------------------------------|
|--------------------------------|--------------------------------|
 
 |       |       |       |        |       |       |       |        
|--------------------------------|7{----------------------12{-----|
|7{--------------7{--------------|--------7{----------------------|
|--------5{--------------7{------|----------------5{--------------|
|--------------------------------|--------------------------------|
|--------------------------------|--------------------------------|
|--------------------------------|--------------------------------|
 
 |       |       |       |        |       |       |       |        
|----------------12{-------------|--------12{---------------------|
|7{----------------------7{------|----------------12{-------------|
|--------5{----------------------|5{----------------------12{-----|
|--------------------------------|--------------------------------|
|--------------------------------|--------------------------------|
|--------------------------------|--------------------------------|
 
 |       |       |       | Fin    
|--------------------------------|
|--------------------------------|
|--------------------------------|
|--------------------------------|
|--------------------------------|
|12{-----------------------------|
            
Hard to play? Try these video lessons and learn fast. | Correct




comments powered by Disqus
↑ Back to top | Tablatures and chords are parodies/interpretations of the original songs. You may use it for private study, scholarship, research or language learning purposes only