>
 >
Black Star 1

Black Star 1 Guitar Tabs

Yngwie Malmsteen - Black Star 1 chords, tabs, tablatures, lyrics

Guitar lessons | Add/correct | Request | Top 50 tabs Artists:  A B C D E F G H I J K L M N O P Q R S T U V W X Y Z 0-9

Black Star 1 Guitar Tabs – Yngwie Malmsteen

CD, Sheet music, Poster

Do you like Black Star 1? Share with your friends now
Bass TabsBass Tabs v2TabsTabs v2Tabs v3
Intro
            ~          ~~~~          ~
|---^7----|----------|-------------|-----2-3--|-^4----|
|---^7----|-8---7-5--|-4tr5----2-4-|-5--------|-^5----|
|---^8----|----------|-------------|----------|-^4----|
|---------|----------|-4-----------|----------|-------|
|---^9----|-7--------|---------0---|----------|-------|
|---------|----------|-------------|-3--------|-^4----|


   ~~          ~~~~~~~~~
|-^5----------(5)--|-^6---------|-------7-------|
|-^5----------(5)--|-^7---------|-----8---7--5--|
|-^7--5h7p5s4--5---|-^6---------|---9-----8--6--|
|------------------|------------|---------------|
|-^0---------------|------------|---------------|
|------------------|--6--6-7-9--|-7-------------|


                 4/4
|---------<7>--||-------<12>-------------|
|-7------------||-------------<12>-------|
|-8------------||-------------------<5>--|
|--------------||------------------------|
|--------------||------------------------|
|----<7>-------||-<12>-------------------|


                                           
|-----------------<12>--|-(<12>)--------||---------||--------------7-12-|
|-<7>-------<12>--------|---------------||---------||------------8-------|
|------<7>--------------|---------------||---------||----------9---------|
|-----------------------|---------------||---------||--------9-----------|
|-----------------------|---------------||---------||--------------------|
|-----------------------|---------------||---------||--------------------|


    ~~~~~~~~                  ~~~~~~~~~~~~~
|-8s7---(7)-------|-------12-14-(14)--(14)------------19-|
|-----------------|----12--------------------------17----|
|-----------------|-12--------------------------16-------|
|--------------14-|--------------------------17----------|
|-----------------|--------------------------------------|
|-----------------|--------------------------------------|


                              ~~~~
|-(19)-17-15s14-15----------------|
|---------------------17s15-(15)--|
|---------------------------------|
|---------------------------------|
|---------------------------------|
|---------------------------------|


|--------------------------------------------------<12>-(<12>)-(<12>)-----|
|--------12-16-15-13-12----13-12----------------12------------------------|
|-----12----------------14-------14-12-11----12-----------------------<7>-|
|--14-------------------------------------14------------------------------|
|-------------------------------------------------------------------------|
|-------------------------------------------------------------------------|


|--------------------------7--|
|-------0h1p0--(0)-------5----|
|-(<7>)----------------4------|
|--------------------5--------|
|-----------------------------|
|-----------------------------|


  Gtr IV
                            <  <  <  <  <  <  <  <  <  <
|------------------|-------14-12-------------------------|
|------------------|-------------15-17-12----------------|
|------------------|----------------------12-11----------|
|------------------|----------------------------14-------|
|------------------|-------------------------------14-12-|
|------------------|-------------------------------------|
|
| Gtr III
|                     <  <  <  <  <  <  <  <  <  <  <  <
|       ~~
|-(7)s=10--(10)----|-14-12-------------------------------|
|------------------|-------15-17-12----------------------|
|------------------|----------------12-11----------------|
|------------------|----------------------14-------------|
|------------------|-------------------------14-12-10----|
|------------------|----------------------------------14-|


   <  <  <  <  <  <  <  <  <  <  <  <
|----------------------------------15--|
|-------------------12-13-12-17-16-----|
|----------------12--------------------|
|-------------14-----------------------|
|-10----10-14--------------------------|
|----14--------------------------------|
|
|  <  <  <  <  <  <  <  <  <  <  <  <
|----------------------------15-14-17--|
|-------------12-13-12-17-16-----------|
|----------12--------------------------|
|-------14-----------------------------|
|-10-14--------------------------------|
|--------------------------------------|


   <  <  <  <  <  <  <  <  <  <  <  <
|-14-17-15-19-20-19-20-17-20-15-20-14-|
|-------------------------------------|
|-------------------------------------|
|-------------------------------------|
|-------------------------------------|
|-------------------------------------|
|
|  <  <  <  <  <  <  <  <  <  <  <  <
|-15-19-20-19-20-17-20-15-20-14-15----|
|----------------------------------16-|
|-------------------------------------|
|-------------------------------------|
|-------------------------------------|
|-------------------------------------|


                                       Gtr I
   <  <  <  <  <  <
                                           ~~~~~~~~
|-15-------------15-----------------||----------------|
|----16-17----17--------------------||----------------|
|----------16-----------------------||----------------|
|-----------------------------------||----------------|
|-----------------------------------||-7--(7)--(7)----|
|-----------------------------x-----||----------------|
|
|                                      Gtr II
|  <  <  <  <  <  <
|                    ~~~~~~~~~~~~~~~~~~~~
|----------15-19----21b24===(21)r---||----------------|
|-17----17-------17-----------------||----------------|
|----16-----------------------------||----------------|
|-----------------------------------||-5--------------|
|-----------------------------------||----------------|
|---------------------------------0-||----------------|


                            ~
|------------------------------|-------------|
|------------------------------|-------------|
|-4b5======(4)-(4)--(4)r(4)-4--|-4s=9--------|
|------------------------------|-------------|
|------------------------------|-------------|
|------------------------------|-------------|
|
|                           ~~~~~~~~~~~~~~~~~~
|------------------------------|-------------|
|------------------------------|-------------|
|-7b9==(7)-----(7)--(7)r(7)-7--|---12--------|
|------------------------------|-------------|
|------------------------------|-------------|
|------------------------------|-------------|


                     Main Theme
    ~~~~~~~~~~~~~                  ~~                    ~~
|------------------||-----------------------14-15-14--------|
|------------------||-17pb19r(17)-17--16-17----------16-17--|
|--(9)-------------||---------------------------------------|
|------------------||---------------------------------------|
|------------------||---------------------------------------|
|-------------0----||---------------------------------------|
|
|~~~~~~          ~                 ~~                    ~~
|------------------||-----------------------17-19-17--------|
|-(12)------(12)---||-20pb22r(20)-20--19-20----------19-20--|
|-(12)------(12)---||---------------------------------------|
|------------------||---------------------------------------|
|------------------||---------------------------------------|
|----------------0-||---------------------------------------|


               ~~                                      ~~
|-19pb20r(19)-19--14-17-15-14----15-14----------14-------|
|-----------------------------17-------17-16-17----16-17-|
|--------------------------------------------------------|
|--------------------------------------------------------|
|--------------------------------------------------------|
|--------------------------------------------------------|
|
|              ~~                                      ~~
|-21pb24r(21)-22--17-20-19-17----19-17----------17-------|
|-----------------------------20-------20-19-20----19-20-|
|--------------------------------------------------------|
|--------------------------------------------------------|
|--------------------------------------------------------|
|--------------------------------------------------------|


               ~~                    ~~
|-----------------------14-15-14--------|
|-17pb19r(17)-17--16-17----------16-17--|
|---------------------------------------|
|---------------------------------------|
|---------------------------------------|
|---------------------------------------|
|
|              ~~                    ~~
|-----------------------17-19-17--------|
|-20pb22r(20)-20--19-20----------19-20--|
|---------------------------------------|
|---------------------------------------|
|---------------------------------------|
|---------------------------------------|


               ~~                                      ~~~
|-19pb20r(19)-19--14-17-15-14----15-14----------14--------|
|-----------------------------17-------17-16-17----16-17/-|
|---------------------------------------------------------|
|---------------------------------------------------------|
|---------------------------------------------------------|
|---------------------------------------------------------|
|
|              ~~                                      ~~~
|-21pb24r(21)-22--17-20-19-17----19-17----------17--------|
|-----------------------------20-------20-19-20----19-20--|
|---------------------------------------------------------|
|---------------------------------------------------------|
|---------------------------------------------------------|
|---------------------------------------------------------|


       ~~    ~~    ~~~~~      ~~                      ~~
|-/19-20-17-20-15-20----20-|-19-20-17-19-21pb24r(21)-19--|
|--------------------19----|-----------------------------|
|--------------------------|-----------------------------|
|--------------------------|-----------------------------|
|--------------------------|-----------------------------|
|--------------------------|-----------------------------|
|
|      ~~    ~~    ~~~~~      ~~                      ~~
|-/19-20-17-20-15-20----20-|-19-20-17-19-21pb24r(21)-19--|
|--------------------19----|-----------------------------|
|--------------------------|-----------------------------|
|--------------------------|-----------------------------|
|--------------------------|-----------------------------|
|--------------------------|-----------------------------|


               ~~                    ~~
|-----------------------14-15-14--------|
|-17pb19r(17)-17--16-17----------16-17--|
|---------------------------------------|
|---------------------------------------|
|---------------------------------------|
|---------------------------------------|
|
|              ~~                    ~~
|-----------------------17-19-17--------|
|-20pb22r(20)-20--19-20----------19-20--|
|---------------------------------------|
|---------------------------------------|
|---------------------------------------|
|---------------------------------------|


               ~~                                      ~~
|-19pb20r(19)-19--14-17-15-14----15-14----------14-------|
|-----------------------------17-------17-16-17----16-17-|
|--------------------------------------------------------|
|--------------------------------------------------------|
|--------------------------------------------------------|
|--------------------------------------------------------|
|
|              ~~                                      ~~
|-21pb24r(21)-22--17-20-19-17----19-17----------17-------|
|-----------------------------20-------20-19-20----19-20-|
|--------------------------------------------------------|
|--------------------------------------------------------|
|--------------------------------------------------------|
|--------------------------------------------------------|


                                                ~~
|--7h=8p=7--5----------------------------------------------------------------|
|--------------8--7--5--------------------------------------------7----------|
|-----------------------8--7--5--4--------------------------------9pb11r=(9)-|
|-----------------------------------7--5--4----------------------------------|
|--------------------------------------------7--6--(6)-------(0)-------------|
|----------------------------------------------------------------------------|
|
|                                               ~~~~~~~~~~~~~
|-19h20p19-17----------------------------------------------------------------|
|-------------20-19-17-------------------------------------------------------|
|----------------------20-19-17-16-------------------------------12pb14r(12)-|
|----------------------------------19-17-16----------------------------------|
|-------------------------------------------19-18-(18)-(18)-----------------|
|----------------------------------------------------------------------------|


   ~~                 ~~
|---------------------------------11-12-14-12-11------|
|------------------------10-12-13----------------13---|
|--8-(0)-12pb14r(12)-11-------------------------------|
|-----------------------------------------------------|
|-----------------------------------------------------|
|-----------------------------------------------------|
|
|  ~~                 ~~
|---------------------------------11-12-14-12-11------|
|--------12pb13r(12)-10--10-12-13----------------13---|
|-11--------------------------------------------------|
|-----------------------------------------------------|
|-----------------------------------------------------|
|-----------------------------------------------------|


|-------------------------------------------19-(19)--|
|-12p10---------------------------<5>-(<5>)----------|
|-------12-11-9-8------------------------------------|
|-----------------10-9-7-----------------------------|
|------------------------10-9-7-6--------------------|
|----------------------------------------------------|
|
|                                  ~~~~~~~~~
|----------------------------------------------------|
|-12p10---------------------------<5>-(<5>)----------|
|-------12-11-9-8------------------------------------|
|-----------------10-9-7-----------------------------|
|------------------------10-9-7-6--------------------|
|----------------------------------------------------|


|-20p17----20-17p14----17-14p11----------11h14p11-20p17-------17p14-------14p11-------11p8--------|
|-------19----------16----------13----13----------------19----------16----------13---------10-----|
|----------------------------------14----------------------20----------17----------14---------11--|
|-------------------------------------------------------------------------------------------------|
|-------------------------------------------------------------------------------------------------|
|-------------------------------------------------------------------------------------------------|
|
|-17p14----17-14p11----14-11p=8-----------8-11p=8-17p14-------14p11-------11p=8--------8p5--------|
|-------16----------13----------10----10----------------16----------13----------10----------7-----|
|----------------------------------11----------------------17----------14----------11----------8--|
|-------------------------------------------------------------------------------------------------|
|-------------------------------------------------------------------------------------------------|
|-------------------------------------------------------------------------------------------------|


               ~~                    ~~
|-----------------------14-15-14--------|
|-17pb19r(17)-17--16-17----------16-17--|
|---------------------------------------|
|---------------------------------------|
|---------------------------------------|
|---------------------------------------|
|
|              ~~                    ~~
|-----------------------17-19-17--------|
|-20pb22r(20)-20--19-20----------19-20--|
|---------------------------------------|
|---------------------------------------|
|---------------------------------------|
|---------------------------------------|


               ~~                                      ~~
|-19pb20r(19)-19--14-17-15-14----15-14----------14-------|
|-----------------------------17-------17-16-17----16-17-|
|--------------------------------------------------------|
|--------------------------------------------------------|
|--------------------------------------------------------|
|--------------------------------------------------------|
|
|              ~~                                      ~~
|-21pb24r(21)-22--17-20-19-17----19-17----------17-------|
|-----------------------------20-------20-19-20----19-20-|
|--------------------------------------------------------|
|--------------------------------------------------------|
|--------------------------------------------------------|
|--------------------------------------------------------|


               ~~                    ~~
|-----------------------14-15-14--------|
|-17pb19r(17)-17--16-17----------16-17--|
|---------------------------------------|
|---------------------------------------|
|---------------------------------------|
|---------------------------------------|
|
|              ~~                    ~~
|-----------------------17-19-17--------|
|-20pb22r(20)-20--19-20----------19-20--|
|---------------------------------------|
|---------------------------------------|
|---------------------------------------|
|---------------------------------------|


               ~~                                      ~~~       ~~    ~~    ~~~~~
|-19pb20r(19)-19--14-17-15-14----15-14----------14--------|-/19-20-17-20-15-20----20-|
|-----------------------------17-------17-16-17----16-17/-|--------------------19----|
|---------------------------------------------------------|--------------------------|
|---------------------------------------------------------|--------------------------|
|---------------------------------------------------------|--------------------------|
|---------------------------------------------------------|--------------------------|
|
|              ~~                                      ~~~       ~~    ~~    ~~~~~
|-21pb24r(21)-22--17-20-19-17----19-17----------17--------|-/19-20-17-20-15-20----20-|
|-----------------------------20-------20-19-20----19-20--|--------------------19----|
|---------------------------------------------------------|--------------------------|
|---------------------------------------------------------|--------------------------|
|---------------------------------------------------------|--------------------------|
|---------------------------------------------------------|--------------------------|


   ~~                      ~~                ~~                    ~~
|-19-20-17-19-21pb24r(21)-19--|-----------------------14-15-14--------|
|-----------------------------|-17pb19r(17)-17--16-17----------16-17--|
|-----------------------------|---------------------------------------|
|-----------------------------|---------------------------------------|
|-----------------------------|---------------------------------------|
|-----------------------------|---------------------------------------|
|
|  ~~                      ~~                ~~                    ~~
|-19-20-17-19-21pb24r(21)-19--|-----------------------17-19-17--------|
|-----------------------------|-20pb22r(20)-20--19-20----------19-20--|
|-----------------------------|---------------------------------------|
|-----------------------------|---------------------------------------|
|-----------------------------|---------------------------------------|
|-----------------------------|---------------------------------------|


                    ~~                                      ~~
|-19pb20r=====(19)-19--14-17-15-14----15-14----------14--------|
|----------------------------------17-------17-16-17----16-17--|
|--------------------------------------------------------------|
|--------------------------------------------------------------|
|--------------------------------------------------------------|
|--------------------------------------------------------------|
|
|                   ~~                                      ~~
|-21pb24r(21)------22--17-20-19-17----19-17----------17--------|
|----------------------------------20-------20-19-20----19-20--|
|--------------------------------------------------------------|
|--------------------------------------------------------------|
|--------------------------------------------------------------|
|--------------------------------------------------------------|


                                                ~~
|--7h=8p=7--5----------------------------------------------------------------|
|--------------8--7--5--------------------------------------------7----------|
|-----------------------8--7--5--4--------------------------------9pb11r=(9)-|
|-----------------------------------7--5--4----------------------------------|
|--------------------------------------------7--6--(6)-------(0)-------------|
|----------------------------------------------------------------------------|
|
|                                               ~~~~~~~~~~~~~
|-19h20p19-17----------------------------------------------------------------|
|-------------20-19-17-------------------------------------------------------|
|----------------------20-19-17-16-------------------------------12pb14r(12)-|
|----------------------------------19-17-16----------------------------------|
|-------------------------------------------19-18-(18)-(18)-----------------|
|----------------------------------------------------------------------------|


   ~~                 ~~
|--------------------------|
|--------12----------------|
|--8-(0)-12pb14r(12)-11----|
|--------------------------|
|--------------------------|
|--------------------------|
|
|  ~~                 ~~
|--------------------------|
|--------12pb13r(12)-10----|
|-11-----------------------|
|--------------------------|
|--------------------------|
|--------------------------|


                            ~~                            ~~~~~~~
|-------8-11-8-------11-14-17-------14-17-14-------17-19-21pb24r|
|----10--------10-13-------------16----------16-19--------------|
|-11--------------------------17--------------------------------|
|---------------------------------------------------------------|
|---------------------------------------------------------------|
|---------------------------------------------------------------|
|
|-------5--8-5--------8-11-14-------11-14-11-------14-17-19pb20r|
|-----7---------7-10-------------13----------13-16--------------|
|--8--------------------------14--------------------------------|
|---------------------------------------------------------------|
|---------------------------------------------------------------|
|---------------------------------------------------------------|


 ~~~~~~
|-(21)------20-19-17-15-19-17-15-14-|
|-----------------------------------|
|-----------------------------------|
|-----------------------------------|
|-----------------------------------|
|-----------------------------------|
|
|   ~~~~
|-(19)------------------------------|
|------------------------8s=========|
|-----------------------------------|
|-----------------------------------|
|-----------------------------------|
|-----------------------------------|


   ~~~~~
|--------------------------------|
|-17-----------------------------|
|--------------------------------|
|--------------------------------|
|--------------------------------|
|--------------------------------|
|
|                  ~~~~~~~~~~~~~~~
|-------(0)-14-15----------------|
|-17b19-----------17b19==(17)----|
|--------------------------------|
|--------------------------------|
|--------------------------------|
|--------------------------------|


|----------------------------------------------------------------|
|----------------------------------------------------------------|
|----------------------------------------------------------------|
|----------------------------------------------------------------|
|----------------------------------------------------------------|
|----------------------------------------------------------------|
|
|~~~~~~~
|-------14-15-17-15-17-15-14----14s15-17-19-15-------------------|
|-(17)r----------------------17----------------17----17----------|
|-------------------------------------------------16----16----16-|
|----------------------------------------------------------17----|
|----------------------------------------------------------------|
|----------------------------------------------------------------|


  Gtr II
   ~~                               ~~
|-19-15----20-19-17-15-19-17-15-14-15-17-15-14----21pb24==(21)r=(21)-19-20-17-20-15-20-|
|-------17-------------------------------------17--------------------------------------|
|--------------------------------------------------------------------------------------|
|--------------------------------------------------------------------------------------|
|--------------------------------------------------------------------------------------|
|--------------------------------------------------------------------------------------|


|----20-19-20-17-20-15-20----20-19-20-17-20-15-20----20----20----------15-17-19-17-15-14-17-15-14-12-15-14-12-(11)-14--|
|-19----------------------19----------------------19----17----16-17-19-------------------------------------------------|
|----------------------------------------------------------------------------------------------------------------------|
|----------------------------------------------------------------------------------------------------------------------|
|----------------------------------------------------------------------------------------------------------------------|
|----------------------------------------------------------------------------------------------------------------------|


                                                                  ~~~
|-12p11-------15-14-12s11----------14p12p11------------------------------7-12p(7)-(15)-12-------(19)-15-------|
|-------13-12-------------13-12-10----------13-12-11h12p11-------------8------------------12------------17----|
|----------------------------------------------------------12-11h12-9-----------------------12------------16-|
|-------------------------------------------------------------------------------------------------------------|
|-------------------------------------------------------------------------------------------------------------|
|-------------------------------------------------------------------------------------------------------------|


   ~~~~~~       ~~~~    ~~~~
|-20b22==(20)-(20)-20r(20)-19-20-19-20-19-17-15-19-17-15-14-15-17-15-14-|
|-----------------------------------------------------------------------|
|-----------------------------------------------------------------------|
|-----------------------------------------------------------------------|
|-----------------------------------------------------------------------|
|-----------------------------------------------------------------------|


                                                           T     T     T
|-12-15-14-12-11-14-12-11-8-12-10-8-7----8-7--------------------------------|
|-------------------------------------10-----10pb12==(10)-13-10-17p15h17-10-|
|---------------------------------------------------------------------------|
|---------------------------------------------------------------------------|
|---------------------------------------------------------------------------|
|---------------------------------------------------------------------------|


              ~~~~~~    ~          ~~~        ~
|-----------------------------------------------|
|-(10)r(10)-8-7-(7)-7-5-4-----------------------|
|-------------------------5-8-5-4-(4)-5p4-------|
|-----------------------------------------7-5-4-|
|-----------------------------------------------|
|-----------------------------------------------|


  Gtr V
  ~~~~~~~~~~~~~~~~~~~~~~~~~~~~~~~~~~~~~~~~~~~~~~~~~~~~~~~~~~~~~~~~~~~~~~~~~~~~~~~~~~~~~~~~~~~~~~
|----------------------------------------------------------------------------------------------|
|-1------------------3--------------------------------------5--------------------------10------|
|-2------------------4--------------------------------------5---------------------------9------|
|----------------------------------------------------------------------------------------------|
|----------------------------------------------------------------------------------------------|
|----------------------------------------------------------------------------------------------|
|
| Gtr II
|                                                              T
|-----------------12---17-12--------------------------12-17---20-12-17-12-12b13==(12)--12r(12)-|
|--------------13------------13--------------------13------------------------------------------|
|---------9-14------------------14-9----------9-14---------------------------------------------|
|------10----------------------------10----10--------------------------------------------------|
|---12----------------------------------12-----------------------------------------------------|
|----------------------------------------------------------------------------------------------|


 ~~~~~~~~~~~~~~~~
|------------------|
|-13--12--13--15---|
|-14--19--21--22---|
|------------------|
|------------------|
|------------------|
|
|  ~~
|------------------|
|-15---------------|
|------------------|
|------------------|
|------------------|
|------------------|


   ~~~~~~~~~~
|-15--17--19--19b20-19b20-|
|-17--18--20--------------|
|-------------------------|
|-------------------------|
|-------------------------|
|-------------------------|
|
| Gtr I
|-------------15b17-15b17-|
|-------------------------|
|-------------------------|
|-------------------------|
|-------------------------|
|-------------------------|


  Gtr II
   <
   ~~~~~~~~~~~~~~                                                       ~~
|-20pb24===(20)r-17-20-19-17-16-------------------------------------------|
|-------------------------------18-17-15----------------------------------|
|----------------------------------------17-16-14-13----------------------|
|----------------------------------------------------15-14-12-------------|
|-------------------------------------------------------------15-14-12-11-|
|-------------------------------------------------------------------------|
|
|-19pb20------------------------------------------------------------------|
|-20pb22------------------------------------------------------------------|
|-------------------------------------------------------------------------|
|-------------------------------------------------------------------------|
|-------------------------------------------------------------------------|
|-------------------------------------------------------------------------|


  Gtr I
                                        ~~~~~~
|--7h=8p=7-5---------------------------------------------------|
|-------------8--7-5--------------------------------7----------|
|---------------------8-7-5-4-----------------------9pb11r=(9)-|
|------------------------------7-5-4---------------------------|
|-------------------------------------7-6-(6)--0---------------|
|--------------------------------------------------------------|
|
| Gtr II
|                                       ~~~~~~
|-10h12p10-8---------------------------------------------------|
|------------12-10-8-------------------------------------------|
|--------------------11-9-8-7----------------------12pb14r(12)-|
|-----------------------------10-9-7---------------------------|
|------------------------------------10-9-(9)-(9)-------------|
|--------------------------------------------------------------|


   ~~              ~~
|------------------------------11-12-14-12-11----|
|---------------------10-12-13----------------13-|
|--8--12pb14r(12)-11-----------------------------|
|------------------------------------------------|
|------------------------------------------------|
|------------------------------------------------|
|
|  ~~              ~~
|------------------------------11-12-14-12-11----|
|-----12pb13r(12)-10--10-12-13----------------13-|
|-11---------------------------------------------|
|------------------------------------------------|
|------------------------------------------------|
|------------------------------------------------|


|-------------------------------------------19-(19)--|
|-12p10---------------------------<5>-(<5>)----------|
|-------12-11-9-8------------------------------------|
|-----------------10-9-7-----------------------------|
|------------------------10-9-7-6--------------------|
|----------------------------------------------------|
|
|                                  ~~~~~~~~~
|----------------------------------------------------|
|-12p10---------------------------<5>-(<5>)----------|
|-------12-11-9-8------------------------------------|
|-----------------10-9-7-----------------------------|
|------------------------10-9-7-6--------------------|
|----------------------------------------------------|


                                                                                               ~~
|-20p17----20-17p14----17s14p11----------11h14p11-20p17-------17p14-------14p11-------11p8--------|
|-------19----------16----------13----13----------------19----------16----------13---------10p====|
|----------------------------------14----------------------20----------17----------14---------11--|
|-------------------------------------------------------------------------------------------------|
|-------------------------------------------------------------------------------------------------|
|-------------------------------------------------------------------------------------------------|
|
|-17p14----17-14p11----14-11p=8-----------8h11p=8-17p14-------14p11-------11p=8--------8p5--------|
|-------16----------13----------10----10----------------16----------13----------10----------7-----|
|----------------------------------11----------------------17----------14----------11----------8--|
|-------------------------------------------------------------------------------------------------|
|-------------------------------------------------------------------------------------------------|
|-------------------------------------------------------------------------------------------------|


               ~~                    ~~
|-----------------------14-15-14--------|
|-17pb19r(17)-17--16-17----------16-17--|
|---------------------------------------|
|---------------------------------------|
|---------------------------------------|
|---------------------------------------|
|
|              ~~                    ~~
|-----------------------17-19-17--------|
|-20pb22r(20)-20--19-20----------19-20--|
|---------------------------------------|
|---------------------------------------|
|---------------------------------------|
|---------------------------------------|


               ~~                                      ~~
|-19pb20r(19)-19--14-17-15-14----15-14----------14-------|
|-----------------------------17-------17-16-17----16-17-|
|--------------------------------------------------------|
|--------------------------------------------------------|
|--------------------------------------------------------|
|--------------------------------------------------------|
|
|              ~~                                      ~~
|-21pb24r(21)-22--17-20-19-17----19-17----------17-------|
|-----------------------------20-------20-19-20----19-20-|
|--------------------------------------------------------|
|--------------------------------------------------------|
|--------------------------------------------------------|
|--------------------------------------------------------|


                ~~                    ~~
|------------------------14-15-14--------|
|-17pb19r(17)--17--16-17----------16-17--|
|----------------------------------------|
|----------------------------------------|
|----------------------------------------|
|----------------------------------------|
|
|               ~~                    ~~
|------------------------17-19-17--------|
|-20pb22r(20)--20--19-20----------19-20--|
|----------------------------------------|
|----------------------------------------|
|----------------------------------------|
|----------------------------------------|


               ~~                                      ~~~      ~~    ~~    ~~~~~
|-19pb20r(19)-19--14-17-15-14----15-14----------14--------|-19-20-17-20-15-20----20--|
|-----------------------------17-------17-16-17----16-17/-|-------------------19-----|
|---------------------------------------------------------|--------------------------|
|---------------------------------------------------------|--------------------------|
|---------------------------------------------------------|--------------------------|
|---------------------------------------------------------|--------------------------|
|
|              ~~                                      ~~~      ~~    ~~    ~~~~~
|-21pb24r(21)-22--17-20-19-17----19-17----------17--------|-19-20-17-20-15-20----20--|
|-----------------------------20-------20-19-20----19-20--|-------------------19-----|
|---------------------------------------------------------|--------------------------|
|---------------------------------------------------------|--------------------------|
|---------------------------------------------------------|--------------------------|
|---------------------------------------------------------|--------------------------|


   ~~                      ~~                 ~~~~
|-19-20-17-19-21pb24r(21)-19--|--------------------------------------15----|
|-----------------------------|-19b20==(19)r-19-----(19)---16--17-19-------|
|-----------------------------|--------------------------------------------|
|-----------------------------|--------------------------------------------|
|-----------------------------|--------------------------------------------|
|-----------------------------|--------------------------------------------|
|
|  ~~                      ~~                     ~~
|-19-20-17-19-21pb24r(21)-19--|-17b19==(17)r(17)-17-------(17)-14-15-17-15-|
|-----------------------------|--------------------------------------------|
|-----------------------------|--------------------------------------------|
|-----------------------------|--------------------------------------------|
|-----------------------------|--------------------------------------------|
|-----------------------------|--------------------------------------------|


                ~~~~
|--------------------------------------15-17-19-17-15-14-17-15-14-12-15-14-12-10-14-12-10-8-|
|-19b20r=(19)--19------(19)--16--17-19------------------------------------------------------|
|-------------------------------------------------------------------------------------------|
|-------------------------------------------------------------------------------------------|
|-------------------------------------------------------------------------------------------|
|-------------------------------------------------------------------------------------------|
|
|                   >
|-17b19==(17)r(17)-17-------(17)------------------------------------------------------------|
|-------------------------------------------------------------------------------------------|
|-------------------------------------------------------------------------------------------|
|-------------------------------------------------------------------------------------------|
|-------------------------------------------------------------------------------------------|
|-------------------------------------------------------------------------------------------|


                                                                   >
                                                                   ~~~~
|-12-10-8-7-10-8-7-5-8-7-5-3-7-5-3-2-5-3-2-0-3-2---------------|-------------|
|------------------------------------------------5-4-5-(5)-(5)s|==17---------|
|--------------------------------------------------------------|-------------|
|--------------------------------------------------------------|-------------|
|--------------------------------------------------------------|-------------|
|--------------------------------------------------------------|-------------|
|
|  <
|  ~~~~~~~~~~~~~~~~~~~~~~~~~~~~~~~~~~~~~~~~~~~~~~~~~~~~~~~~~~~~~~~~~~~
|--------------------------------------------------------------|-------------|
|-17-----------------------------------------------------------|-(17)--------|
|--------------------------------------------------------------|-------------|
|--------------------------------------------------------------|-------------|
|--------------------------------------------------------------|-------------|
|--------------------------------------------------------------|-------------|


  Gtr II
    ~~~~~~~~~~~~~~~~~         ~~~~
|-------------|--------------14-----14-15-17-|
|-(17)--------|-(17)--17b19-(17)-------------|
|-------------|------------------------------|
|-------------|------------------------------|
|-------------|------------------------------|
|-------------|------------------------------|


            ~~                               ~~~~~
|-17b19-20p17----14-15-17b19==|=(17)r-20-22-19-17----17s14-15-|
|-----------------------------|-------------------------------|
|-----------------------------|-------------------------------|
|-----------------------------|-------------------------------|
|-----------------------------|-------------------------------|
|-----------------------------|-------------------------------|


           ~~~~~~~
|-(15)-17p14-(14)-(14)-12s14-15p12-(12)s14--10h12p10-|
|----------------------------------------------------|
|----------------------------------------------------|
|----------------------------------------------------|
|----------------------------------------------------|
|----------------------------------------------------|


        T                 T              T              T              T              T
|-(10)h15p10h12h14p12p10h15p12h14p12p10h15p12h14p12p10h15p12h14p12p10h15p12h14p12p10h15p12h14p12p10s14h19p15-------15p12-------12p7-------|
|------------------------------------------------------------------------------------------------------------17----------12---------8-----|
|---------------------------------------------------------------------------------------------------------------16----------12--------9---|
|-----------------------------------------------------------------------------------------------------------------------------------------|
|-----------------------------------------------------------------------------------------------------------------------------------------|
|-----------------------------------------------------------------------------------------------------------------------------------------|


                                                              ~~
|-7p3-----8p7p5---7-5-----5-------------7-12p7-15p12--------------|
|-----3---------8-----8-7---8p7-5-----8--------------(12)---------|
|-------4-------------------------8p9---------------------12s11---|
|-----------------------------------------------------------------|
|-----------------------------------------------------------------|
|-----------------------------------------------------------------|


                                                                               T
|-8---------------8-10-12-10-8-7-10-8-7-5-8-7-5-3-5-7-5-3-----3----------------------|
|---12-10-8-10-12-----------------------------------------7-5---7-5b7==(5)-(5)-6-5---|
|------------------------------------------------------------------------------------|
|------------------------------------------------------------------------------------|
|------------------------------------------------------------------------------------|
|------------------------------------------------------------------------------------|


         ~~~~~~
|------------------------------------------------------------------------|
|-(5)r-----------------------------4-5---4-5-7--4-5-7-8-5-7-8-10-7-8-10--|
|----------------------4-5---4-5-7-----7---------------------------------|
|------7s5-(5)-7-4-5-7-----7---------------------------------------------|
|------------------------------------------------------------------------|
|------------------------------------------------------------------------|


                                                                        ~~~~~~~
|----------------------------------------------------------------------21pb24===|
|-12-8-10-12-13-10-12-13-15-12-13-15-17-13-15-17-19-15-17-19-20--(20)-----------|
|-------------------------------------------------------------------------------|
|-------------------------------------------------------------------------------|
|-------------------------------------------------------------------------------|
|-------------------------------------------------------------------------------|


|-(21)-(21)r(21)b24==(21)r(21)b27====(21)r(21)--11-12-14-|
|--------------------------------------------------------|
|--------------------------------------------------------|
|--------------------------------------------------------|
|--------------------------------------------------------|
|--------------------------------------------------------|


                        T     ~~
|-15-14h15p14-12-14-15-19-15-14-14-15-(15)--10-|
|-----------------------------------------------|
|-----------------------------------------------|
|-----------------------------------------------|
|-----------------------------------------------|
|-----------------------------------------------|


                                  ~~~~~~~~~~~~~~~              ~~
|-(10)--14-15-14-12-10-12-(12)---10-(10)--|-(10)--------------------|-----|
|-----------------------------------------|------13--13-15-13-12----|-----|
|-----------------------------------------|-------------------------|-----|
|-----------------------------------------|-------------------------|-----|
|-----------------------------------------|-------------------------|-----|
|-----------------------------------------|-------------------------|-----|


  Gtr V
|-----*|
|-----*|
|-----*|
|-----*|
|-----*|
|-----*|





Comments


Popular Yngwie Malmsteen tabs & chords
Black Star 2 Bass Tabs
Beethovens 5th Symphony Tabs
Blitzkrieg Tabs
Blitzkrieg 2 Tabs
Fugetta 1 Tabs
Gimme Gimme Gimme Intro Tabs
Icarus Dream Opus 4 Tabs
Leviathan Tabs
My Resurrection Tabs
Vengeance Tabs


Song lyrics



↑ Back to top | Tablatures and chords are parodies/interpretations of the original songs. You may use it for private study, scholarship, research or language learning purposes only
© 2014 AZChords.com Contact us | Privacy policy | DMCA | Add/correct tabs | Request tabs | Top 50 tabs