» » »

Yesterdays Rising, When We Speak We Breath Tabs (ver.1)

Artists:  A B C D E F G H I J K L M N O P Q R S T U V W X Y Z # 

When We Speak We Breath Tabs (ver.1)

Yesterdays Rising Tabs
Rating:
0/5 (0 votes)
When We Speak We Breath lessons Tabs too difficult? Try these video lessons and learn fast
                WHY ARE kicks ass and so does this song. I've been trying to tab it out for awhile now
and finally have gotten most of the lead. It's DEFIANTLY not 100% correct. So start
correcting it people. It's a kick ass song, pretty easy, and fun.

DO NOT COPY THIS AND SAY IT WAS YOUR WORK. PLEASE.

Intro/verse
|-----------------------|
|--10-------------------|
|----10--12-9--9h10p9\7-|
|-----------------------|
|-----------------------|
|-----------------------|

|----------------------------|
|--10------------------------|
|----10-12-9h10p9\7-9h10p9\7-|
|----------------------------|
|----------------------------|
|----------------------------|

|-----------------------|
|--10-------------------|
|----10--12-9--9h10p9\7-|
|-----------------------|
|-----------------------|
|-----------------------|

|----------------10-------10|
|--10----------10-------10--|
|----10-12-9h10-----9h10----|
|---------------------------|
|---------------------------|
|---------------------------|


End verse
|--------10^-|
|--10--------|
|----10------|

Verse
|-------------------------------------------------------------------|
|-------------------------------------------------------------------|
|--12p10p9-12p10p9-12p10p9-12p10p9-12p10p9-9p10p12-9p10p12-9p10p12--|
|-------------------------------------------------------------------|
|-------------------------------------------------------------------|
|-------------------------------------------------------------------|

-----------------------------------------------------------------------|
-----------------------------------------------------------------------|
9p10p12-9p10p12|-12p13p15-12p13p15-12p13p15-12p13p15-12p13p15-15p13p12-|
-----------------------------------------------------------------------|
-----------------------------------------------------------------------|
-----------------------------------------------------------------------|

-----------------------------       --17^-------| I think this part is right
-----------------------------       ------------| but I'm not sure.
-15p13p12-15p13p12-15p13p12--    ...  ----------|
-----------------------------       ------------|
-----------------------------       ------------|
-----------------------------       ------------|
Repeat however many times

Intro/verse

Verse
Whatever you want to call this part
|---------------------------------------|
|---------------------------------------|
|--10--10--10--10----9--9--9--9------10-|
|----12--12--12--12---12-12-12-12--12---|
|---------------------------------------|
|---------------------------------------|

Fill
|------------|
|--13----13--|
|----10-9----|
|------------|
|------------|
|------------|

Break
|---------------|---------------|
|---------------|---------------| Figure out strumming for yourself.
|---------------|---------------|
|-0000--7--3--5-|0000--7--3--10-|
|-0000--7--3--5-|0000--7--3--10-|
|-0000--7--3--5-|0000--7--3--10-|
  ****           ****

Then it's something like this.. I don't know how many times or even if it's the right notes though
(I'm not putting how many times you play the note in)
|-----------17-|
|10-8-6-5-6----|
|--------------|
|--------------|
|--------------|
|--------------|


|-------------------|--------------| Play each note an amount of times
|-------------------|--------------| then repeat the phrase. Then go on
|-10--9--10--12--14-|-10--9--10--9-| to the second part of the phrase.
|--x--x---x---x---x-|--x--x---x--x-|
|--8--7---8--10--12-|--8--7---8--7-|
|-------------------|--------------|

Then...
|-----------17-|
|10-8-6-5-6----|
|--------------|
|--------------|
|--------------|
|--------------|

|------------|
|--13----13--|
|----10-9----|
|------------|
|------------|
|------------|

failedBYdesign
failurexbyxdesign
            
Submit corrections

comments powered by Disqus
↑ Back to top | Yesterdays Rising Tabs for When We Speak We Breath. Lyrics for acoustic guitar and electric guitar. Tablatures and chords are parodies/interpretations of the original songs. You may use it for private study, scholarship, research or language learning purposes only