» » »

Yesterdays Rising, When We Speak We Breath Tabs (ver.2)

Artists:  A B C D E F G H I J K L M N O P Q R S T U V W X Y Z # 

When We Speak We Breath Tabs (ver.2)

Yesterdays Rising Tabs
 Rating:
3.8/5 (5 votes)
When We Speak We Breath lessons Tabs too difficult? Try these video lessons and learn fast
1
                Artist-Yesterdays Rising
Song-When we Speak we Breath

(this song isnt 100% correct but the intro and some other parts sound good to me.
Please dont copy this tab and say you tabbed)


[Key-]
p-pull off
h-hammer on
b-bend
*-pinched harmonic
...-palm mute


Guitar 1
Intro-(0:02-0:46)

Repeat 4x
e---------------------------------------------------------|
b---------------------------------------------------------|
g--12-10~--12-9~--9h10h9-----12-10-12--9h10h9----9h10h9---|
d-----------------------10-------------------10--------10-|
a---------------------------------------------------------|
e---------------------------------------------------------|

e-----------------------------------------------------------|
b-------------------------------------------13------13------|
g--12-10~--12-9~--9h10h9-----12-10-12--9-10----9-10---------|
d-----------------------10----------------------------------|
a-----------------------------------------------------------|
e-----------------------------------------------------------|


Guitar 1
Verse-(0:47-1:09)
            Repeat 2x
e-----------------------------------------|---------------------------------|
b-----------------------------------------|---------------------------------|
g--12p10p9-12p10p9-12p10p9-12p10p9-12p10p9|-9p10p12-9p10p12-9p10p12-9p10p12-|
d-----------------------------------------|---------------------------------|
a-----------------------------------------|---------------------------------|
e-----------------------------------------|---------------------------------|

e--------|----------------------------------------------|-------------------|
b--------|----------------------------------------------|-------------------|
g-9p10p12|-12p13p15-12p13p15-12p13p15-12p13p15-12p13p15-|-15p13p12-15p13p12-|
d--------|----------------------------------------------|-------------------|
a--------|----------------------------------------------|-------------------|
e--------|----------------------------------------------|-------------------|

e-----------------------------                    |--------------------|
b-----------------------------                    |--------------------|
g-15p13p12-15p13p12-15p13p12-- (note)on the end   |---15b*-------------|
d-----------------------------   of second time   |--------------------|
a-----------------------------   do-------------> |--------------------|
e-----------------------------                    |--------------------|


Guitar 1
Verse 2-(1:09-1:31)

Repeat 2x
e---------------------------------------------------------|
b---------------------------------------------------------|
g--12-10~--12-9~--9h10h9-----12-10-12--9h10h9----9h10h9---|
d-----------------------10-------------------10--------10-|
a---------------------------------------------------------|
e---------------------------------------------------------|

e-----------------------------------------------------------|
b-------------------------------------------13------13------|
g--12-10~--12-9~--9h10h9-----12-10-12--9-10----9-10---------|
d-----------------------10----------------------------------|
a-----------------------------------------------------------|
e-----------------------------------------------------------|

Guitar 1
Verse-(1:32-1:53)

Repeat 2x
e-----------------------------------------|---------------------------------|
b-----------------------------------------|---------------------------------|
g--12p10p9-12p10p9-12p10p9-12p10p9-12p10p9|-9p10p12-9p10p12-9p10p12-9p10p12-|
d-----------------------------------------|---------------------------------|
a-----------------------------------------|---------------------------------|
e-----------------------------------------|---------------------------------|

e--------|----------------------------------------------|-------------------|
b--------|----------------------------------------------|-------------------|
g-9p10p12|-12p13p15-12p13p15-12p13p15-12p13p15-12p13p15-|-15p13p12-15p13p12-|
d--------|----------------------------------------------|-------------------|
a--------|----------------------------------------------|-------------------|
e--------|----------------------------------------------|-------------------|

e-----------------------------                    |--------------------|
b-----------------------------                    |--------------------|
g-15p13p12-15p13p12-15p13p12-- (note)on the end   |---15b*-------------|
d-----------------------------   of second time   |--------------------|
a-----------------------------   do-------------> |--------------------|
e-----------------------------                    |--------------------|


Guitar 1
Interlude-(1:55-2:20)

e--------------------------------------------|
b--------------------------------------------|
g-10--10--10--10--10----9---9---9---9---9----|Repeat about
d---12--12--12--12--12---12--12--12--12--12--|     8x
a--------------------------------------------|
e--------------------------------------------|


Guitar 1
Interlude 2-(2:21-2:45)

e---------------------|
b--------13-----------|   Repeat Alot
g---9-10--------------|
d---------------------|
a---------------------|
e---------------------|


Guitar 1
Chorus-(2:46-3:10)

e--------------------------------------------------------|
b--------------------------------------------------------|
g---------9--7--5--7--9-----------9--7--5--12b-----------|
d---------9--7--5--7--9-----------9--7--5--12b-----------|
a--0000---7--5--3--5--7----0000---7--5--3--10b-----------|
e--------------------------------------------------------|
   ....                    ....

Then something i cant make out then its the chorus again

Guitar 1
Chorus-(3:36-3:48)

e--------------------------------------------------------|
b--------------------------------------------------------|
g---------9--7--5--7--9-----------9--7--5--12b-----------|
d---------9--7--5--7--9-----------9--7--5--12b-----------|
a--0000---7--5--3--5--7----0000---7--5--3--10b-----------|
e--------------------------------------------------------|
   ....                    ....
            
Submit corrections

comments powered by Disqus
↑ Back to top | Yesterdays Rising Tabs for When We Speak We Breath. Lyrics for acoustic guitar and electric guitar. 1 Tablatures and chords are parodies/interpretations of the original songs. You may use it for private study, scholarship, research or language learning purposes only