>
 >
 >
Onward

Onward Bass Tabs

Yes - Onward chords, tabs, tablatures, lyrics

Guitar lessons | Add/correct | Request | Top 50 tabs Artists:  A B C D E F G H I J K L M N O P Q R S T U V W X Y Z 0-9

Onward Bass Tabs – Yes

CD, Sheet music, Poster

Do you like Onward? Share with your friends now
Bass TabsBass Tabs v2ChordsUkulele
     Intro                                                     
     W                   W                   W                 
G||-------------------|-------------------|-------------------|
D||-------------------|-------------------|-------------------|
A||-------------------|-------------------|-------------------|
E||-------------------|-------------------|-------------------|


                      First Verse                                               
  W                   W                   W                   W                 
-------------------|-------------------|-------------------|-------------------|
-------------------|-------------------|-------------------|-------------------|
-------------------|-------------------|-------------------|-------------------|
-------------------|-------------------|-------------------|-------------------|


  W                   W                   W                   W                 
-------------------|-------------------|-------------------|-------------------|
-------------------|-------------------|-------------------|-------------------|
-------------------|-------------------|-------------------|-------------------|
-------------------|-------------------|-------------------|-------------------|


               First Chorus                                                
  Q.     E     W                   H        H           H        H         
------------|-------------------|--3-----------------|-----------5--------|
------------|-------------------|--------------------|--------------------|
---------5--|--7----------------|-----------1--------|--3-----------------|
------------|-------------------|--------------------|--------------------|


  H        H           H        H            H        E   E  E  E   
--7-----------------|-----------9--------|--10---------------------|
--------------------|--------------------|-------------------------|
-----------5--------|--7-----------------|------------8------------|
--------------------|--------------------|---------------10--6--8--|


  W                   W                   W                   W                 
-------------------|-------------------|-------------------|-------------------|
-------------------|-------------------|-------------------|-------------------|
-------------------|-------------------|-------------------|-------------------|
-------------------|-------------------|-------------------|-------------------|


  Second Verse                                                                  
  W                   W                   W                   W                 
-------------------|-------------------|-------------------|-------------------|
-------------------|-------------------|-------------------|-------------------|
-------------------|-------------------|-------------------|-------------------|
-------------------|-------------------|-------------------|-------------------|


  W                   W                   W                   Q.     E   
-------------------|-------------------|-------------------|------------|
-------------------|-------------------|-------------------|------------|
-------------------|-------------------|-------------------|---------5--|
-------------------|-------------------|-------------------|------------|


  Second Chorus                                               
  W                   H        H           H        H         
-------------------|--3-----------------|-----------5--------|
-------------------|--------------------|--------------------|
--7----------------|-----------1--------|--3-----------------|
-------------------|--------------------|--------------------|


  H        H           H        H            H        E   E  E  E   
--7-----------------|-----------9--------|--10---------------------|
--------------------|--------------------|-------------------------|
-----------5--------|--7-----------------|------------8------------|
--------------------|--------------------|---------------10--6--8--|


  W                   W                   W                 
-------------------|-------------------|-------------------|
-------------------|-------------------|-------------------|
-------------------|-------------------|-------------------|
-------------------|-------------------|-------------------|


                        Interlude                                  
  H.           E  E     H         E  Q    E     H.           Q     
---------------------|-----------------------|--------------------|
---------------------|-----------------------|---------------2----|
--1------------L-----|---------------0----2--|--3-----------------|
------------------1--|--3---------L----------|--------------------|


  H        E  E  Q       H.           Q       H        E  E  Q     
----------------------|--------------------|----------------------|
----------------------|---------------2----|----------------------|
--------------0--2----|--3-----------------|--------------0--2----|
--3--------L----------|--------------------|--3--------L----------|


                                                            Out - Chorus      
  H.           E  E     H        E  Q    E     Q.     E     W                 
---------------------|----------------------|------------|-------------------|
------------------2--|--5--------L----------|---------0--|--2----------------|
--3------------L-----|--------------0----2--|--3---------|-------------------|
---------------------|----------------------|------------|-------------------|


  Q.     S S H           Q.     S S H           Q     E   S S H         
--5-------------------|--7-------------------|--9~----9----------------|
---------2-0----------|---------4-2-0--------|-------------------------|
-------------3--------|----------------------|-----------10-9-7--------|
----------------------|----------------------|-------------------------|


   Q.      S  S H            Q    S S S S S S S S S S S S    W                 
--11---------------------|--17----9-7-5-------------------|-------------------|
-------------------------|--------------9-7-5-------------|-------------------|
----------12-10-9--------|--------------------9-7-5-------|-------------------|
-------------------------|--------------------------8-7-5-|--3----------------|


  Outro                                                                         
  W                   W                   W                   W                 
-------------------|-------------------|-------------------|-------------------|
-------------------|-------------------|-------------------|-------------------|
--3----------------|-------------------|--3----------------|-------------------|
-------------------|--3----------------|-------------------|--3----------------|


  W                   W                   W                   W                 
-------------------|-------------------|-------------------|-------------------|
-------------------|-------------------|-------------------|-------------------|
--3----------------|-------------------|--3----------------|-------------------|
-------------------|--3----------------|-------------------|--3----------------|


  W                  
-------------------||
-------------------||
-------------------||
--L----------------||




Duration Legend
---------------
W - whole
H - half
Q - quarter
E - 8th
S - 16th
T - 32nd
X - 64th
. - note dotted
|-n-|  - n-tuplets


Tablature Legend
----------------
L - tied note
x - dead note
g - grace note
(n) - ghost note
> - accentuded note
NH - natural harmonic
AH - artificial harmonic
TH - tapped harmonic
SH - semi harmonic
PH - pitch harmonic
h - hammer on
p - pull off
b - bend
br - bendRelease
pb - preBend
pbr - preBendRelease
brb - bendReleaseBend
\n/ - tremolo bar dip
\n - tremolo bar dive
-/n - tremolo bar Release up
/n\ - tremolo bar inverted dip
/n - tremolo bar return
-\n - tremolo bar Release down
S - shift slide
s - legato slide
/ -  slide into from below or out of upwards
\ -  slide into from above or out of downwards
~ - vibrato
W - wide vibrato
tr - trill
TP - tremolo picking
T - tapping
S - slap
P - pop
< - fade in
^ - brush up
v - brush down





Comments


Popular Yes tabs & chords
Astral Traveller Bass Tabs
Foot Prints 1 Bass Tabs
I've Seen All Good People 1 Bass Tabs
Love Will Find A Way Bass Tabs
Holy Lamb Chords
Show Me Chords
And You And I Tabs
Your Move Tabs
Changes Ukulele
If Only You Knew Ukulele


Song lyrics



↑ Back to top | Tablatures and chords are parodies/interpretations of the original songs. You may use it for private study, scholarship, research or language learning purposes only
© 2014 AZChords.com Contact us | Privacy policy | DMCA | Add/correct tabs | Request tabs | Top 50 tabs