>
 >
 >
America

America Bass Tabs

Yes - America chords, tabs, tablatures, lyrics

Guitar lessons | Add/correct | Request | Top 50 tabs Artists:  A B C D E F G H I J K L M N O P Q R S T U V W X Y Z 0-9

America Bass Tabs – Yes

CD, Sheet music, Poster

Do you like America? Share with your friends now
Bass Tabs


/ = slide up
\ = slide down
h = hammer on

G|------------------------------------------------------------/7-7-7--|
D|---------------------------------------------0--0--0--0--0----------|
A|-0--0--0--0--0--0--0--0--0--0--0--0--0--0---------------------------|
E|--------------------------------------------------------------------|

-------/7-7-7--------/7-7-7--------------------------------------------|
-0--0----------0--0----------------------------------------------------|
-----------------------------0--0--0--0--0--0--------------------------|
-----------------------------------------------2--2--2--2--2--2--2--2--|

----------------------------------------------------------------------|
----------------------------------------------------------------------|
-4--4--4--4--------------4--4--4--4--------------2---0-----------2-0--|
-------------2--2--2--2--------------2--2--2--2----------0--0--2------|

--------------------------------------------------------------------------|
--------------------------------------0--0--0--0--0--0--0--0--0--0--0--0--|
---------2-0---0--------------0-------------------------------------------|
-0--0--2-------------2--2--4-----4-2--------------------------------------|

          (very fast)                 (slow down)
-7-7-9-9-11-11-12-12-14-14-16-18-19--------------------------------------|
-------------------------------------0--0--0--0--0--0--0--0--0--0--0--0--|
-------------------------------------------------------------------------|
-------------------------------------------------------------------------|

---------------------------------------------------/7-7-7---------/7-7-7--|
-0--0--0----------------------------0--0--0--0--0-----------0--0----------|
----------0--0--0--0--0--0--0--0------------------------------------------|
--------------------------------------------------------------------------|

-------/7-7-7-------------------------------------------------------------|
-0--0---------------------------------------------------------------------|
---------------0--0--0--0--0--0--------------------------2----2----2----2-|
---------------------------------2--2--2--2--2--2--2--2-------------------|

--------------------------------------------------------------------------|
--------------------------------------------------------------------------|
-2----2----2----2----2----4----2----2----2----2----2----4------5----------|
--------------------------------------------------------------------------|

-------16-14--------------------------------11-13-14-13-11------------|
-12-----------16-14-12--14---------11-12-14-----------------14--12-11-|
----------------------------12-14-------------------------------------|
----------------------------------------------------------------------|

------------11----------------------------------------11-13-14-13--11--|
---------14-------14----12----12h14---------11-12-14-------------------|
-14--12------------------------------12-14-----------------------------|
-----------------------------------------------------------------------|

----------------------------------------------14----13----11-------------|
-14--12-11---------11-12----11----------14----------------------14-12-11-|
-----------14--12-----------------14-------------------------------------|
-------------------------------------------------------------------------|

---------------------------------------------------------------------------|
---------------------------------------------------------------------------|
-14-12---------------------------------------------------------------------|
-------14-12-9-5--5--4h5--4h5--4h5---5--5--4h5--4h5--4h5---5--5--4h5--4h5--|

----------------------------------------------------------------------|
----------------------------------------------------------------------|
-----------------------------2--2--2--2-------------------------------|
-4h5---5--5--4h5--4h5--4h5---------------2--2--2--2--0--0--0--0--0----|

--------------------------------------------4-4-6-7--7-5h7-7-7-5h7-7-7-|
---------------------------------0--4--5--7----------------------------|
-------0-0--0--0--0----------------------------------------------------|
-2--4---------------2-2--2--2--2---------------------------------------|

--------------------------------------------------------------------------|
-4-4-5-5-6-6-----------------------4-------------4------------------------|
-------------0-0--0--0--0------4-------4-------4---22--222--222--222--222-|
---------------------------2---------------2------------------------------|

----------------2h4--42h4--42h4--42h4--42h4--42h4--42h4--42h4--42h4--2-|
-----------------------------------------------------------------------|
-222--222--222---------------------------------------------------------|
-----------------------------------------------------------------------|

----------------2h4--42h4--42h4--42h4--42h4--42h4--42h4--42h4--42h4--2-|
--------2-2-4-4--------------------------------------------------------|
-4--4-4----------------------------------------------------------------|
-----------------------------------------------------------------------|

-----------------------------------------------------------------------|
--------2-2-4-4--------------------------------------------------------|
-4--4-4---------22--222--222--222--222--222--222--222--222--2--4-------|
-----------------------------------------------------------------------|
                  (ver fast)
|-----------------555577775555-----|----14-14-14-14-12-12-12-12-11-11-11-11-|
|-0000444455557777------------7777-|x4--------------------------------------|
|----------------------------------|----------------------------------------|
|----------------------------------|----------------------------------------|

-------------------------------------------------------------------------|
-14-14-14-14-12-12-12-12-10-10-10-10-------------------------------------|
-------------------------------------14-14-14-14-12-12-12-12-12-12-12-12-|
-------------------------------------------------------------------------|

---------------------------------------------------------------------|
---------------------------------------------------------------------|
-10-10-10-10-9-9-9-9-------------------------------------------------|
---------------------12-12-12-12-10-10-10-10-8-8-8-8-7-7-7-7-5-5-5-5-|

-------------------------------------------------5-5-5-5---------|
---------------------------------5-5-5-5-7-7-7-7---------5-5-5-5-|
---------4-4-4-4-5-5-5-5-7-7-7-7---------------------------------|
-5-5-5-5---------------------------------------------------------|

---------6-6-6-6-7-7-7-7-9-9-9-9-11-11-11-11-12-12-12-12-14---|
-7-7-7-7------------------------------------------------------|
--------------------------------------------------------------|
--------------------------------------------------------------|

|---------------------------------5-5-5-5-7-7-7-7-------------------------|
|-0-0-0-0-4-4-4-4-5-5-5-5-7-7-7-7-----------------7-7-7-7-0-0-0-0-4-4-4-4-|
|-------------------------------------------------------------------------|
|-------------------------------------------------------------------------|

-----------------5-5-5-5-7-7-7-7-12-12-12-12-19\----|
-5-5-5-5-7-7-7-7------------------------------------|x2
----------------------------------------------------|
----------------------------------------------------|

The End!!! that took a long time to transcribe. Hope you liked it.

 ---Kelsey Terhorst





Comments


Popular Yes tabs & chords
Close To The Edge Bass Tabs
Fish Bass Tabs
Siberian Khatru Bass Tabs
Survival Chords
Yesterday And Today 1 Chords
Long Distance Runaround Tabs
Run Through The Light Intro Tabs
Starship Trooper Intro Tabs
Show Me Ukulele
Survival Ukulele


Song lyrics



↑ Back to top | Tablatures and chords are parodies/interpretations of the original songs. You may use it for private study, scholarship, research or language learning purposes only
© 2014 AZChords.com Contact us | Privacy policy | DMCA | Add/correct tabs | Request tabs | Top 50 tabs