» » »

Yes, I've Seen All Good People Bass tabs (ver.2)

Artists:  A B C D E F G H I J K L M N O P Q R S T U V W X Y Z # 

I've Seen All Good People Bass tabs (ver.2)

Yes Tabs
 Rating:
4/5 (4 votes)
I've Seen All Good People lessons Tabs too difficult? Try these video lessons and learn fast
                Yes
I've Seen All Good People
bass tab

  0.31           4:4      t:150
|--------|--------|--------|--------|
|--------|--------|--------|--------|*
|--------|--------|--------|--------|*
|0-------|0-------|0-------|0-------|...

  2.49
|--------|--------|--------|--------|--------|--------|--------|--------|
|--------|--------|--------|--------|--------|--------|--------|--------|
|7-------|--------|--------|--------|--------|--------|--------|--------|
|--------|9-------|7-------|5-------|4-------|2-------|4-------|5-------|

|--------|--------|--------|--------|--------|--------|--------|--------|
|--------|--------|--------|----7---|6-------|--------|--------|--------|
|7-------|--------|--------|--------|--------|--------|11------|12--14--|
|--------|9-------|7-------|5-------|--------|2-------|--------|--------|

|--------|--------|--------|--------|--------|--------|--------|--------|----|
|--------|--------|--------|--------|--------|--------|--------|--------|----|
|--------|--------|--------|--------|--------|--------|--------|--------|----|
|0-------|2-------|4-------|5-------|--------|--------|--------|--------|----|

      
          
  3.32      t:170        -3-       4:4   3:4
|------------|------------|------------|---------|
|-----------5|^----------5|^----------5|^--------|
|0-.5-43-.3--|--.5-4--.3--|--.5-4--.3--|--.5-4--.|
|------------|------------|------------|---------|

  3.38       
   |---------|------------|------------|---------|------------|
   |--------7|^-5-----.5-7|^-5-----.5-7|^-5-----.|5-67-.7-89--|
   |9-7--.5--|---7-6------|---7-6------|---7-6---|-----------.|
   |---------|------------|------------|---------|------------|

  3.45    |---------|------------|------------|------------|
          |---------|------------|------------|------------|
          |5-67-.7-.|5-.5-.5-.5-.|3-----------|------------|
          |---------|------------|--.0-.1-.2-.|3-.3-.3-.3-.|
  3.51    
|------------|---------|---------|---------|----^^-^^---|
|--------.3-5|^--------|--------7|^-5-----.|5-.678789---|
|0-.5-4------|--.5-4--./9-7--.5--|---7-6---|---------7-.|
|------------|---------|---------|---------|------------|

  3.57    |---------|-----.7-.5/-|------------|------------|
          |---------|------------|------------|------------|
          |5-67-.7-.|5-.5--------|------------|------------|
          |---------|------------|8-.8-.8-.8-.|7-7--.7-.7--|

  4.03
|------------|---------|---------|---------------|
|-----------5|^--------|---------|---------------|
|--.5-4--30--|--.5-4--.|9-8--.1012^-------.1214/-|
|5-----------|---------|---------|--.1211--------|

  4.09      mini solo
|---------------|---------|---------|---------|------------|
|---------------|---------|---------|---------|------------|
|-----------.8-10^--------|-----.1012^-------.|10.11.12+14-|
|0-15\.109------|--.109--.|1211-----|--.1211--|-----------.|

  4.16  |---------|------------|------------|------------|
        |---------|------------|------------|-----2------|
        |---------|------------|------------|--2-----2---|
        |12.0-.0-.|2-.2-.2-.2-.|3-.3-.3-.3-.|4----------.|
  4.22
|------------|------------|------------|------------|------|
|--------.3-5|^-------.5-7|^-------.8-10^-------.1012^-.14-|
|0-.5-4------|--.5-4------|--.109------|--.1211-----|-----.|
|------------|------------|------------|------------|------|
    4.29  |------------|------------|------------|------------|
  solo  |------------|--------.5-7|-----2------|-----2---2-4|
        |12------.1012-----7------|--.4----.2-0|--.4--------|
        |---15\12----|--.9--------|------------|------------|

  4.36  |--------.2-4|---------2-4|------------|------------|
        |--.5-54-----|--.5-4--.---|--.5-4------|------------|
        |2-----------|------------|--------.5-2|--.4-.5-.6--|
        |------------|------------|------------|------------|

  4.42  |------------|------------|------------|--.6-.7-.8--|
        |------------|------------|--.6-.7-.8-.|9-----------|
        |------------|--.4-.5-.6-.|7-----------|------------|
        |0-.4-.5-.6-.|7-----------|------------|------------|

  4.49  |9/----------|------------|------------|---------|
        |-----------12-----------12-----------12---------|
        |---1211-.14-|---1211-.14-|---1211-.14-|---1211--|
        |------------|------------|------------|--------.|

  4.54  |------------|------------|------------|------------|
        |------------|------------|------------|------------|
        |------------|------------|------------|------------|
        |0-----5-----|5-----5-----|5-----5-----|5-----5-----|

  5.01  |------------|------------|------------|------------|------|
        |------------|------------|------------|------------|------|
        |------------|------------|------------|------------|------|
        |7-----7-----|7-----7-----|7-----7-----|7-----------|-----.|

  5.08  |---------|------------|------------|------------|
        |---------|------------|------------|------------|
        |5-7--.7-.|5-.5-.5-.5-.|3-----------|------------|
        |---------|------------|--.0-.1-.2-.|3--3-.3-.3-.|
  5.14
|------------|---------|---------|---------|------------|
|--------.3-5|^--------|-----.5-7|^--------|5-67-.7-89--|
|0-.5-4------|--.5-4--.|7-6------|--.7-6--.|-----------.|
|------------|---------|---------|---------|------------|

  5.20  |---------|------------|------------|------------|
        |---------|--.5-7--.7/-|------------|------------|
        |5-7--.7-.|5-----------|--.7-.8-.9-.|10----10-10-|
        |---------|-----------.|8-----------|------------|
  5.27  
|------------|---------|---------|---------|------|
|--------.3-5|^--------|-----.5-7|^-------.|5-7---|
|0-.5-4------|--.5-4--.|7-6------|--.7-6---|------|
|------------|---------|---------|---------|------|

  5.32  |------------|------------|---------|---------|---------|
        |------------|------------|-------7-|-6-------|7-.7^9---|
        |-----.5-4---|-----.5-4--.|7-6------|--7-7----|--------.|
        |0-3--------.|5-4---------|---------|---------|---------|

  5.39  |---------|------------|------------|------------|
        |---------|------------|------------|-----2------|
        |5--------|------------|------------|--2-----2---|
        |--0--..--|2-----------|3-----------|4-----------|
  5.45
|------------|---------|---------|---------------|
|--------.3-5|^--------|--------7|^-5------------|
|0-.5-4------|--.5-4--3|0-6--50--|---7-6--50-0---|
|------------|---------|---------|---------------|

  5.51
|------------|---------------|---------------|---------------|
|------------|---------------|---------------|---------------|
|------------|---------------|---------------|---------------|
|0-5---------|---------------|7--------------|---------------|

  5.58
|------------------|------------|------------|------------|------------------|
|------------------|------------|------------|7-----------|------------------|
|------5-----------|3-----------|------------|------5-----|7-----4-----------|
|0-----------------|------------|3-----------|------------|------------------|

  6.08
|------------------|------------|------------|------------|------------------|
|------------------|------------|------------|------------|------------------|
|5-----3-----------|1-----------|0-----------|------3-----|5-----------------|
|------------------|------------|------------|3-----------|------7-----------|

  6.17
|------------------|------------|------------|------------|------------------|
|------------------|------------|------------|------------|------------------|
|------------------|------------|------------|------1-----|3-----------------|
|8-----6-----------|4-----------|3-----------|1-----------|------5-----------|

  6.27
|------------------|------------|------------|------------|------------------|
|------------------|------------|------------|------------|------------------|
|------------------|------------|------------|5-----------|------------------|
|6-----4-----------|2-----------|0-----------|------3-----|5-----2-----------|
  


standard tuning (EADG)

| /  slide up
| \  slide down

| .   incidental note (usually open string)
| ^   pre-struck note (hammer-on, pull-off)
| =   rest

| X   10
| E   11
| T   12
| H   13
| F   14


display in fixed-width font
one space ("-") = 1/16 note

spaceyhippie
dudeman.net/jam
            
Submit corrections

comments powered by Disqus
↑ Back to top | Yes Bass for I've Seen All Good People. Lyrics for acoustic guitar and electric guitar. Tablatures and chords are parodies/interpretations of the original songs. You may use it for private study, scholarship, research or language learning purposes only