» » »

Five Per Cent For Nothing Bass tabs (ver.3)

Artists:  A B C D E F G H I J K L M N O P Q R S T U V W X Y Z # 

Five Per Cent For Nothing Bass tabs (ver.3)

Yes
Rating:
0/5 (0 votes)

Tabs too difficult? Try these video lessons and learn fast.
                Yes - "Five Per Cent For Nothing" as heard on Fragile.

Standard Tuning: EADG


|:------9-9--------------------|------7-7-----------7-7-----------|
|:----9-----9-------9-8--------|----7-----7-------7-----7---------|
|:--7---------7---7-----6---6--|--5---------5---5---------5-------|
|:------------------------6----|----------------------------------|


|-----------8----------10-10------|-------------------------------|
|----6----8---8-----10-------10---|------9-9-----------9-9--------|
|--4----6---------8-------------8-|----9-----9-------9-----9------|
|---------------------------------|--7---------7---7---------7----|


|------9-9---------------------|------7-7-----------7-7-----------|
|----9-----9-------9-8---------|----7-----7-------7-----7---------|
|--7---------7---7-----6---6---|--5---------5---5---------5-------|
|------------------------6-----|----------------------------------|


|-----------8---------10-10-------|------------------------------:|
|----6----8---8----10-------10----|------9-9----------9-9--------:|
|--4----6--------8-------------8--|----9-----9------9----9-------:|
|---------------------------------|--7---------7--7-------7\-----:|



\ - Slide Down
            
Tabs too difficult? Try these video lessons and learn fast.




comments powered by Disqus
↑ Back to top | Tablatures and chords are parodies/interpretations of the original songs. You may use it for private study, scholarship, research or language learning purposes only