>
 >
Ikaw Lang Talaga

Ikaw Lang Talaga Guitar Tabs

Yeng Constantino - Ikaw Lang Talaga chords, tabs, tablatures, lyrics

Guitar lessons | Add/correct | Request | Top 50 tabs Artists:  A B C D E F G H I J K L M N O P Q R S T U V W X Y Z 0-9

Ikaw Lang Talaga Guitar Tabs – Yeng Constantino

CD, Sheet music, Poster

Do you like Ikaw Lang Talaga? Share with your friends now
Bass TabsChordsTabsUkulele

For any comments and Suggestion:


Intro:

Guitar 2:       Guitar 1:
e-------------|--------------------------------------------|
b-------------|-3-5/6-5-3-1--3-5/8-5p6p5-3-1-3-5/6-3-1-----|
g-3~-5~-------|----------------------------------------2*~-|
D-3~-5~-5~-7~-|--------------------------------------------|
A-1~-3~-5~-7~-|--------------------------------------------|
E-------3~-5~-|--------------------------------------------|

Verse:

May nagawa...
e----------------------------------|
b----------------------------------|
g----------------------------------|
D---77777--------------------------|
A---55555---77777--999999---555555-|
E-----------55555--777777---333333-|

kinausap lang...
e----------------------------------|
b----------------------------------|
g----------------------------------|
D---77777--------------------------|
A---55555---77777--999999---555555-|
E-----------55555--777777---333333-|

Refrain:

Guitar 1:(i think is a bass not pretty sure here)\
e------------------------|
b------------------------|
g------------------------|
D--12/13-13-----9/10-----|
A----------12-9------10--|
E------------------------|
Wag ka ng magalit...
e----------------------------------|
b----------------------------------|
g----------------------------------|
D---77777--------------------------|
A---55555---77777--999999---555555-|
E-----------55555--777777---333333-|


RefraiN:
Ikaw lang talaga...
e----------------------------------|
b----------------------------------|
g---77777--------------------------|
D---77777---7777---999999---555555-|
A---55555---77777--999999---555555-|
E-----------55555--777777---333333-|

Guitar 2:

e------------|---------|
b------------|---------|
g--77777777--|-777777--|
D--xxxxxxxx--|-xxxxxx--|
A--55555555--|-555555--|
E------------|---------|

Interlude:

Guitar 1:

e-------12h14-12h10-------12h14--15-14-12-10-|
b--1515-------------1515---------------------|
g--------------------------------------------|
D--------------------------------------------|
A--------------------------------------------|
E--------------------------------------------|
Guitar 2:
e----------------------------------|
b----------------------------------|
g---77777--------------------------|
D---77777---7777---999999---555555-|
A---55555---77777--999999---555555-|
E-----------55555--777777---333333-|

Verse:
alam kong makulit..
e----------------------------------|
b----------------------------------|
g---77777--------------------------|
D---77777---7777---999999---555555-|
A---55555---77777--999999---555555-|
E-----------55555--777777---333333-|

kahit pa si piolo...
e----------------------------------|
b----------------------------------|
g---77777--------------------------|
D---77777---7777---999999---555555-|
A---55555---77777--999999---555555-|
E-----------55555--777777---333333-|

Pre-Refrain:

Wag ka ng magalit
e-2-----2---3------|
b-3-----3---3------|
g-2--2--4---0------|
D----2--4---0------|
A-------2---2------|
E-------2---3------|

RefraiN:
Ikaw lang talaga...
e----------------------------------|
b----------------------------------|
g---77777--------------------------|
D---77777---7777---999999---555555-|
A---55555---77777--999999---555555-|
E-----------55555--777777---333333-|

Di mo ba alam.
e----------------------------------|
b----------------------------------|
g---77777--------------------------|
D---77777---7777---999999---555555-|
A---55555---77777--999999---555555-|
E-----------55555--777777---333333-|

Guitar 2:

e------------|---------|
b------------|---------|
g--77777777--|-777777--|
D--xxxxxxxx--|-xxxxxx--|
A--55555555--|-555555--|
E------------|---------|

Interlude:

Guitar 1:

e-------12h14-12h10-------12h14--15-14-12-10-|
b--1515-------------1515---------------------|
g--------------------------------------------|
D--------------------------------------------|
A--------------------------------------------|
E--------------------------------------------|
Guitar 2:
e----------------------------------|
b----------------------------------|
g---77777--------------------------|
D---77777---7777---999999---555555-|
A---55555---77777--999999---555555-|
E-----------55555--777777---333333-|

Bridge:

Huwag ka ng...
e-----------------|
b-----------------|
g-----------------|
D-2~--7~--5~--7~--|
A-2~--7~--5~--7~--|
E-----5~--3~--5~--|

Mangungulit..
e-----------------|
b-----------------|
g-----------------|
D-2~--7~--5~--7~--| i think F#m7-G
A-2~--7~--5~--7~--|
E-----5~--3~--5~--|

RefraiN:
Ikaw lang talaga...
e----------------------------------|
b----------------------------------|
g---77777--------------------------|
D---77777---7777---999999---555555-|
A---55555---77777--999999---555555-|
E-----------55555--777777---333333-|

Di mo ba alam.
e----------------------------------|
b----------------------------------|
g---77777--------------------------|
D---77777---7777---999999---555555-|
A---55555---77777--999999---555555-|
E-----------55555--777777---333333-|

Interlude:

e---------------------------------|
b---------------------------------|
g--121212--1313--1010--1515--888--|
D--xxxxxx--xxxx--xxxx--xxxx--xxx--|
A--101010--1111--8888--1313--666--|
E---------------------------------|
Ikaw lang talaga.

e----------------------------------|
b----------------------------------|
g---77777--------------------------|
D---77777---7777---999999---555555-|
A---55555---77777--999999---555555-|
E-----------55555--777777---333333-|

Intro:

Guitar 2:       Guitar 1:
e-------------|--------------------------------------------|
b-------------|-3-5/6-5-3-1--3-5/8-5p6p5-3-1-3-5/6-3-1-----|
g-3~-5~-------|----------------------------------------2*~-|
D-3~-5~-5~-7~-|--------------------------------------------|
A-1~-3~-5~-7~-|--------------------------------------------|
E-------3~-5~-|--------------------------------------------|





Comments


Popular Yeng Constantino tabs & chords
Alaala 1 Chords
If We Fall In Love 2 Chords
Jeepney Love Story 3 Chords
Sabihin Mo Na 1 Chords
Tao Lang Ako 1 Chords
Time In Chords
Babay Ukulele
Bakit Nga Ba Ukulele
Pasko Sa Pinas Ukulele
Teleserye Ukulele


Song lyrics



↑ Back to top | Tablatures and chords are parodies/interpretations of the original songs. You may use it for private study, scholarship, research or language learning purposes only
© 2014 AZChords.com Contact us | Privacy policy | DMCA | Add/correct tabs | Request tabs | Top 50 tabs