>
 >
Jeepney Love Story

Jeepney Love Story Bass Tabs

Yeng Constantino - Jeepney Love Story chords, tabs, tablatures, lyrics

Guitar lessons | Add/correct | Request | Top 50 tabs Artists:  A B C D E F G H I J K L M N O P Q R S T U V W X Y Z 0-9

Jeepney Love Story Bass Tabs – Yeng Constantino

CD, Sheet music, Poster

Do you like Jeepney Love Story? Share with your friends now
Bass TabsChordsChords v2Chords v3Chords v4Ukulele
Yeng Constantino

Verse
G|----------------------------|
D|---------7------------------|
A|-5---5/7---------4--2-------|
E|------------0----------5--3-|

Verse
G|-------------------------------------------------------------------|
D|-------------------------------------------------------------------|
A|-5-5-5-5-5-5-5-5---------------------------------------------------|
E|-----------------5-5-5-5-5-5-5-5--0-0-0-0-0-0-0-0--3-3-3-3-3-3-3-3-|3x

Prechorus1
G|-----|------|-----------------|----------------------------|
D|-----|------|-----------------|----------------------------|
A|---pause----|-----------------|-4-2------4-2-------2-4-5-7-|
E|-----|------|-3-3-3-3-3-3-3-3-|-----5-3------5-3-----------|

Chorus1 
G|--------------------------------------------------------------------|
D|--------------------------------------------------------------------|
A|-5-5-5-5-5-5-5-5--------------------------------------------4-2-----|
E|------------------5-5-5-5-5-5-5-5--0-0-0-0-0-0-0-0--3-3-3-3-----5-3-|2x

G|-----------------------------------|
D|-----------------------------------|
A|-5-5-5-5---------------------------|
E|---------5-5-5-5--0-0-0-0--3-3-3-3-|2x

Verse
G|-------------------------------------------------------------------|
D|-------------------------------------------------------------------|
A|-5-5-5-5-5-5-5-5---------------------------------------------------|
E|-----------------5-5-5-5-5-5-5-5--0-0-0-0-0-0-0-0--3-3-3-3-3-3-3-3-|3x

Prechorus2 
G|-------------------------|-----------------|---------------------------|
D|-------------------------|-----------------|---------------------------|
A|----5--5---------------7-|-----------------|-4-2------4-2------2-4-5-7-|
E|-/5-------5--5--0--5/7---|-3-3-3-3-3-3-3-3-|-----5-3------5-3----------|

Chorus2 
G|--------------------------------------------------------------------|
D|--------------------------------------------------------------------|
A|-5-5-5-5-5-5-5-5--------------------------------------------4-2-----|
E|------------------5-5-5-5-5-5-5-5--0-0-0-0-0-0-0-0--3-3-3-3-----5-3-|2x

Bridge 
G|--------------------------------------------------------|
D|--------------------------------------------------------|
A|-5-5--5-5-----------------------------------------------|
E|-----------5-5--5-5--0-0-0-0-0-0-0-0-0--3-3-3-3-3-3-3-3-|

G|---------------------------------------------------------|
D|---------------------------------------------------------|
A|-5-5--5-5------------------------------------------------|
E|-----------5-5--5-5--0-0-0-0-0-0-0-0-0--/3-3-3-3-3-3-3-3-|

G|----------------------------------------------------------------------|
D|----------------------------------------------------------------------|
A|-5-5-5-5-5-5-5-5------------------------------------------------------|
E|-----------------5-5-5-5-5-5-5-5--0-0-0-0-0-0-0-0-0--/3-3-3-3-3-3-3-3-|2x

Verse 
G|------------|------|
D|------------|------|
A|--pause-----|------|
E|------------|------|

G|------------|-----------------|-----------|
D|------------|-----------------|-----------|
A|--pause-----|-----------------|-drumbeats-|
E|------------|-3-3-3-3-3-3-3-3-|-----------|

Chorus (ending) 
G|--------------------------------------------------------------------|
D|--------------------------------------------------------------------|
A|-5-5-5-5-5-5-5-5--------------------------------------------4-2-----|
E|------------------5-5-5-5-5-5-5-5--0-0-0-0-0-0-0-0--3-3-3-3-----5-3-|2x

G|-----------------------------------|
D|-----------------------------------|
A|-5-5-5-5---------------------------|
E|---------5-5-5-5--0-0-0-0--3-3-3-3-|3x

G|-----------------|----------------------------|
D|-----------------|----------------------------|
A|-5-5-5-5---------|-4--2---------2--4--5--7--5-|
E|---------5-5-5-5-|-------5--3-----------------|





Comments


Popular Yeng Constantino tabs & chords
Even If Chords
Hawak Kamay 1 Chords
Jeepney Lovestory 1 Chords
Pag-ibig 6 Chords
Pangarap Lang Chords
Hawak-kamay Ukulele
Jeepney Lovestory Ukulele
Lapit Ukulele
Salamat Ukulele
What About Us Ukulele


Song lyrics



↑ Back to top | Tablatures and chords are parodies/interpretations of the original songs. You may use it for private study, scholarship, research or language learning purposes only
© 2014 AZChords.com Contact us | Privacy policy | DMCA | Add/correct tabs | Request tabs | Top 50 tabs