» » »

Lapit Tabs (ver.1)

Artists:  A B C D E F G H I J K L M N O P Q R S T U V W X Y Z # 

Lapit Tabs (ver.1)

Yeng Constantino
Rating:
5/5 (1 vote)

Hard to play? Try these video lessons and learn fast.
                
I'm 98.37% sure that this tab is accurate.. XD

Tuning: Standard

Intro:
e---------------------------------------|
B----------8---------3---------4--------|
G--------8---------4---------5-----3----|  
D------8---------5---------5-------3----| 2x
A----6---------5---------3--------------|
E---------------------------------------|
   D#/Eb	G	Cm	A#/Bb	

Verse:
e---------------------------------------|
B----------8---------3---------4--------|
G--------8---------4---------5-----3----|
D------8---------5---------5-------3----|
A----6---------5---------3--------------|
E---------------------------------------|
   D#/Eb	G	Cm	  Bb	
Pikit mata NagtatanongNg sagot sa bakit

e---------------------------------------|
B----------8---------3---------4--------|
G--------8---------4---------5-----3----|
D------8---------5---------5-------3----|
A----6---------5---------3--------------|
E---------------------------------------|
   D#/Eb	G	Cm	  Bb	
Pikit mata LumuluhaDi maintindihan puno ng pait

Refrain:
(Guitar1)				(Guitar2)(optional)
e-----------------------6-----|		e-------------|
B-----------4---------6-------|		B----8/11-----|
G---------5---------7---------|		G-------------|
D-------6---------8-----------| 2x	D-------------| 2x
A-----6-----------------------|		A-------------|
E-----------------------------|		E-------------|
      G#	    A#
Parang walang nakikinig
Dyan kanagkakamali

Chorus1:
   D#/Eb
Lapit sa akin
     G            Cm
At huwag matakot ka

Papawiin ang luha
G#            G#m
Ulan ay titila na
D#/Eb            G
Kahit sabihin mo na
        Cm
Di na kaya

Araw ay sisikat
G#               
May bagong liwanag
G#m
Di ka nagiisa
ah ah ah ah...
 D#/Eb G Cm G#-G#m

Verse2:
e---------------------------------------|
B----------8---------3---------4--------|
G--------8---------4---------5-----3----|
D------8---------5---------5-------3----|
A----6---------5---------3--------------|
E---------------------------------------|
   D#/Eb	G	Cm	   Bb	
Naghahanap Naghihintay O sa mundo kaya Nalang sumabay

e---------------------------------------|
B----------8---------3---------4--------|
G--------8---------4---------5-----3----|
D------8---------5---------5-------3----|
A----6---------5---------3--------------|
E---------------------------------------|
   D#/Eb	G	Cm	   Bb	
Nangingimi Na sumuko na Di makita San bang pagasa

Refrain2:
e--------6-------6-------6-------6------|
B------4---4---4---4---6---6---6---6----|
G----5-------5-------7-------7----------|
D---------------------------------------|
A---------------------------------------|
E---------------------------------------|
G#		A#/Bb
Parang walang nakikinig 

e--------6-------6-------6---6----------|
B------4---4---4---4---6---6------------|
G----5-------5-------7------------------|
D---------------------------------------|
A---------------------------------------|
E---------------------------------------|
G#		A#/Bb
Dyan kanagkakamali

Chorus2:
   D#/Eb
Lapit sa akin
     G            Cm
At huwag matakot ka

Papawiin ang luha
G#            G#m
Ulan ay titila na
D#/Eb            G
Kahit sabihin mo na
        Cm
Di na kaya

Araw ay sisikat
G#               
May bagong liwanag
G#m
Di ka nagiisa
ah ah ah ah...
 D#/Eb G Cm G#-G#m

Bridge:
G#		  A#/Bb
Problema'y parang ulan
	     D#/Eb
Nawalang katapusan
		       A#/Bb
Di Makita kung sa'n sisilong
G#			   Bb
At sa hakbang merong dilim na
B	   Cm
Laging nanjan
		   A#/Bb
Di alam kung sa'n tutungo

G#		A#/Bb
Parang walang nakikinig
G#		A#/Bb
Dyan ka nagkakamali

Chorus3:
   D#/Eb
Lapit sa akin
     G            Cm
At huwag matakot ka

Papawiin ang luha
G#            G#m
Ulan ay titila na
D#/Eb            G
Kahit sabihin mo na
        Cm
Di na kaya

Araw ay sisikat
G#               
May bagong liwanag
G#m
Di ka nagiisa
ah ah ah ah...
 D#/Eb G Cm G#-G#m

D#/Eb            G
Kahit sabihin mo na
        Cm
Di na kaya

Araw ay sisikat
G#               
May bagong liwanag
G#m
Di ka nagiisa

--End--
            
Hard to play? Try these video lessons and learn fast. | Correct




comments powered by Disqus
↑ Back to top | Tablatures and chords are parodies/interpretations of the original songs. You may use it for private study, scholarship, research or language learning purposes only