» » »

Yeng Constantino, Away-bati Tabs (ver.1)

Artists:  A B C D E F G H I J K L M N O P Q R S T U V W X Y Z # 

Away-bati Tabs (ver.1)

Yeng Constantino Tabs
 Rating:
4.2/5 (5 votes)
Away-bati lessons Tabs too difficult? Try these video lessons and learn fast
1
                Track: Away-bati


Tuning: Standard

Legend:
~ - Let it ring
. - Palm mute
0 - Open string
x - Dead string

INTRO

e|-----------------------------|
B|-----------------------------|
G|--------7-7-7--9-9-9--5-5-5--|
D|-5-5-5--7-7-7--9-9-9--5-5-5--|
A|-5-5-5--5-5-5--7-7-7--3-3-3--|
E|-3-3-3-----------------------|
  
e|---------------------------|
B|---------------------------|
G|--------7-7-7--5-5-5~--x-0-|
D|-5-5-5--7-7-7--5-5-5~--x-0-|
A|-5-5-5--5-5-5--3-3-3~--x-0-|
E|-3-3-3---------------------|

Verse I 

e|----------------------------------------------------------|
B|----------------------------------------------------------|
G|--------------7-7-7-7-7-7-0--9-9-9-9-9-9-0--5-5-5-5-5-5-0-|  (x4)
D|-5-5-5-5-5-0--7-7-7-7-7-7-0--9-9-9-9-9-9-0--5-5-5-5-5-5-0-|
A|-5-5-5-5-5-0--5-5-5-5-5-5-0--7-7-7-7-7-7-0--3-3-3-3-3-3-0-|
E|-3-3-3-3-3-0----------------------------------------------|
   . . . . .    . . . . . .    . . . . . .    . . . . . .

Puro away, napapansin mo ba
Mamaya ngingiti, mamaya ngingiwi
Puro tampuhan, walang katapusan
Mamaya hihinto, 'di ka na kikibo


REFRAIN 1

e|--------------------------|
B|--------------------------|
G|-9-9-9--7-7-7--5-5-5-5-5--| (x3)
D|-9-9-9--7-7-7--5-5-5-5-5--|  
A|-7-7-7--5-5-5--3-3-3-3-3--|
E|--------------------------|

'Di naman sa sinasabing nagsasawa na
Ang akin lang naman, pwedeng ayusin pa ba
Kung ayos lang sa 'yo ang ganito

e|---------------|
B|---------------|
G|-9~---7~---5~--|
D|-9~---7~---5~--|  
A|-7~---5~---3~--|
E|---------------|

Sige na nga, magtitiis na lang ako


CHORUS

e|--------------------------------------------|
B|--------------------------------------------|
G|------------7-7-7-7-7--9-9-9-9-9--5-5-5-5-5-|
D|-5-5-5-5-5--7-7-7-7-7--9-9-9-9-9--5-5-5-5-5-| (x2)
A|-5-5-5-5-5--5-5-5-5-5--7-7-7-7-7--3-3-3-3-3-|
E|-3-3-3-3-3----------------------------------|

Kasi nga mahal kita
'Di naman pwedeng sabihing ayaw ko na
Kasi nga mahal kita

e|---------------------------|
B|---------------------------|
G|--------7-7-7--5-5-5~--x-0-|
D|-5-5-5--7-7-7--5-5-5~--x-0-|
A|-5-5-5--5-5-5--3-3-3~--x-0-|
E|-3-3-3---------------------|


Verse II 

e|----------------------------------------------------------|
B|----------------------------------------------------------|
G|--------------7-7-7-7-7-7-0--9-9-9-9-9-9-0--5-5-5-5-5-5-0-|  (x4)
D|-5-5-5-5-5-0--7-7-7-7-7-7-0--9-9-9-9-9-9-0--5-5-5-5-5-5-0-|
A|-5-5-5-5-5-0--5-5-5-5-5-5-0--7-7-7-7-7-7-0--3-3-3-3-3-3-0-|
E|-3-3-3-3-3-0----------------------------------------------|
   . . . . .    . . . . . .    . . . . . .    . . . . . .

Konting masabi, naiinis agad
Ako ba ang mali, oo ba o hinde
Isang buong araw, 'di pwedeng walang sigawan
Ako na ang mali, laging nagtitimpi


REFRAIN 2 

e|--------------------------|
B|--------------------------|
G|-9-9-9--7-7-7--5-5-5-5-5--| (x3)
D|-9-9-9--7-7-7--5-5-5-5-5--|  
A|-7-7-7--5-5-5--3-3-3-3-3--|
E|--------------------------|

'Di mo naman aamining kasalanan mo na
Nasasaktan na ako, hoy, ano ka ba
Kung ayos lang sa 'yo ang ganito

e|---------------|
B|---------------|
G|-9~---7~---5~--|
D|-9~---7~---5~--|  
A|-7~---5~---3~--|
E|---------------|

Sige na nga, magtitiis na lang ako


[Repeat CHORUS]


Adlib (Tab of Guitar 2 still in process)

e|--------------------------------------------|
B|--------------------------------------------|
G|------------7-7-7-7-7--9-9-9-9-9--5-5-5-5-5-|
D|-5-5-5-5-5--7-7-7-7-7--9-9-9-9-9--5-5-5-5-5-| 
A|-5-5-5-5-5--5-5-5-5-5--7-7-7-7-7--3-3-3-3-3-|
E|-3-3-3-3-3----------------------------------|

e|---------------------------|
B|---------------------------|
G|-------7-7-7-7---9--7--5~--|
D|-5-5---7-7-7-7---9--7--5~--|
A|-5-5---5-5-5-5---7--5--3~--|
E|-3-3-----------------------|


REFRAIN 3

e|--------------------------|
B|--------------------------|
G|-9-9-9--7-7-7--5-5-5-5-5--| (x3)
D|-9-9-9--7-7-7--5-5-5-5-5--|  
A|-7-7-7--5-5-5--3-3-3-3-3--|
E|--------------------------|

'Di naman sa sinasabing nagsasawa na
Ang akin lang naman pwedeng ayusin pa ba
Bakit ba kasi ang daming pinagtatalunan

e|---------------|
B|---------------|
G|-9~---7~---5~--|
D|-9~---7~---5~--|  
A|-7~---5~---3~--|
E|---------------|

Sige na nga, 'di naman kita kayang iwanan


[Repeat CHORUS]

CODA (continue from chorus)

e|--------------------------------------------|
B|--------------------------------------------|
G|------------7-7-7-7-7--9-9-9-9-9--5-5-5-5-5-| 
D|-5-5-5-5-5--7-7-7-7-7--9-9-9-9-9--5-5-5-5-5-| 
A|-5-5-5-5-5--5-5-5-5-5--7-7-7-7-7--3-3-3-3-3-|
E|-3-3-3-3-3----------------------------------|

Ayoko lang ng ganito
Sumasakit na ang ulo ko
Away-bati tayo

Mahal kita
Kaya 'di ko sasabihing ayoko na
Kasi nga mahal kita

Ayoko lang ng ganito
Sumasakit na ang ulo ko away-bati...

e|-----------------------------|
B|-----------------------------|
G|-9-9-9--5-5-5---------7-7-7--|
D|-9-9-9--5-5-5--5-5-5--7-7-7--| (x2) (strumming is the same with the intro)
A|-7-7-7--3-3-3--5-5-5--5-5-5--|
E|---------------3-3-3---------|

tayo, hoh woh oohh..

e|------------|
B|------------|
G|-9-9-9--5~--|
D|-9-9-9--5~--|
A|-7-7-7--3~--|
E|------------|

hoo woh oohh


--- THE END -------


Paki-rate na rin po! Tnx!

I'll be updating the tabs of gtr.2...

Rok On! \m/
            
Submit corrections

comments powered by Disqus
↑ Back to top | Yeng Constantino Tabs for Away-bati. Lyrics for acoustic guitar and electric guitar. 1 Tablatures and chords are parodies/interpretations of the original songs. You may use it for private study, scholarship, research or language learning purposes only