» » »

Yellowcard, Fix You Tabs (ver.1)

Artists:  A B C D E F G H I J K L M N O P Q R S T U V W X Y Z # 

Fix You Tabs (ver.1)

Yellowcard Tabs
 Rating:
4/5 (4 votes)
Fix You lessons Tabs too difficult? Try these video lessons and learn fast
                -------------------------------------------------------------------------------
Album : Southern Air
-------------------------------------------------------------------------------

Tuning: d, B, G, D, A, E


Just figure out the timing and strumming. :)

Intro/Verse:

d|--0---0----------|
B|--3---3---3---3--|
G|--2---2---4---2--|
D|------x---4---2--|
A|------4---2------|
E|-----------------|
    D D/C# Bm Asus

Chorus:

d|--0---0------------|
B|--3---3---3---(2)--|
G|--0---0---2---(2)--|
D|--0-------2---(2)--|
A|--x---x------------|
E|--3---2------------|
    G  G/F# Asus A        (Strum chord A just once at the end of the chorus)


Bridge

d|--0--0--0-----|
B|--3--3--3--3--|
G|--2--0--2--2--|
D|-----------2--|
A|-----x--------|
E|-----3--------|
    D  G  D  Asus

For the final chorus, just play the riff for chorus.

And that's all! :D
            
Submit corrections

comments powered by Disqus
↑ Back to top | Yellowcard Tabs for Fix You. Lyrics for acoustic guitar and electric guitar. Tablatures and chords are parodies/interpretations of the original songs. You may use it for private study, scholarship, research or language learning purposes only