>
 >
Drifting

Drifting Guitar Tabs

Yellowcard - Drifting chords, tabs, tablatures, lyrics

Guitar lessons | Add/correct | Request | Top 50 tabs Artists:  A B C D E F G H I J K L M N O P Q R S T U V W X Y Z 0-9

Drifting Guitar Tabs – Yellowcard

CD, Sheet music, Poster

Do you like Drifting? Share with your friends now
Tabs


\ - slide down 
/ - slide up 
p - pull off 
h - hammer on 
* - harmonic 
pm - palm mute 

7x 
7x - mute strings after strum 
5x 

GUITAR 1 PARTS 
INTRO 
"When I look into your eyes..." 
e|------------------------------------------------------------------- 
B|--------------------2---2--2--3-3--2--2-2-2------------------------ 
G|-------7--7--6--6---4---4--4--4-4--4--4-4-4--7-7-7--7--7-7-7-7----- 
D|--------------------4---4--4--4-4--4--4-4-4--7-7-7--7--7-7-7-7----- 
A|-0--0--5--5--4--4---2---2--2--2-2--2--2-2-2--5-5-5--5--5-5-5-5----- 
D|-0--0----------------------------------------5-5-5--5--5-5-5-5----- 
pm. ....... 
e|------------------------------------------------------------------- 
B|------------------------------------------------------------------- 
G|--7/9\7---7-7-7-7-7--7--7-7---7\6-6-6\4-4-4\2---------7--7--6--6--- 
D|----------7-7-7-7-7--7--7-7---------------------------------------- 
A|--5/7\5---5-5-5-5-5--5--5-5---5\4-4-4\2-2-2\0---0--0--5--5--4--4--- 
D|----------5-5-5-5-5--5--5-5---------------------0--0--------------- 
pm..... .... 
e|------------------------------------------------------------------- 
B|----2---2--2--3-3--2--2-2-2---------------------------------------- 
G|----4---4--4--4-4--4--4-4-4--7-7-7x----7-7-7x----7-7-7--7-7-7x----- 
D|----4---4--4--4-4--4--4-4-4--7-7-7x----7-7-7x----7-7-7--7-7-7x----- 
A|----2---2--2--2-2--2--2-2-2--5-5-5x----5-5-5x----5-5-5--5-5-5x----- 
D|-----------------------------5-5-5x----5-5-5x----5-5-5--5-5-5x----- 

e|------------------------------------------------------------------- 
B|-----------------------------------2---2--2--3-3--2--2-2-2--------- 
G|-7-7-7x---------------7--7--6--6---4---4--4--4-4--4--4-4-4--7-7-7-- 
D|-7-7-7x----5h7---------------------4---4--4--4-4--4--4-4-4--7-7-7-- 
A|-5-5-5x---------0--0--5--5--4--4---2---2--2--2-2--2--2-2-2--5-5-5-- 
D|-5-5-5x---------0--0----------------------------------------5-5-5-- 
pm. 
e|------------------------------------------------------------------- 
B|------------------------------------------------------------------- 
G|-7--7-7-7-7---7/9\7---7-7-7-7-7--7--7-7--7\6-6-6\4-4-4\2----------- 
D|-7--7-7-7-7-----------7-7-7-7-7--7--7-7---------------------------- 
A|-5--5-5-5-5---5/7\5---5-5-5-5-5--5--5-5--5\4-4-4\2-2-2\0---0--0---- 
D|-5--5-5-5-5-----------5-5-5-5-5--5--5-5--------------------0--0---- 
pm..... ....... ... 
e|------------------------------------------------------------------- 
B|--------------2---2--2--3-3--2--2-2-2------------------------------ 
G|-7--7--6--6---4---4--4--4-4--4--4-4-4--7-7-7x----7-7-7x----7-7-7--- 
D|--------------4---4--4--4-4--4--4-4-4--7-7-7x----7-7-7x----7-7-7--- 
A|-5--5--4--4---2---2--2--2-2--2--2-2-2--5-5-5x----5-5-5x----5-5-5--- 
D|---------------------------------------5-5-5x----5-5-5x----5-5-5--- 

e|------------------------------------------------------------------- 
B|------------------------------------------------------------------- 
G|-6-6-6x---6-6-6x--------------------------------------------------- 
D|-7-7-7x---7-7-7x--------------------------------------------------- 
A|-4-4-4x---4-4-4x--------------------------------------------------- 
D|------------------------------------------------------------------- 

VERSE 
"I don't know you anymore..." 
e|------------------------------------------------------------------- 
B|------------------------------------------------------------------- 
G|---------------------------------2-2-2-2-2-2-4-4-4-4-4-4-4-4-4-4--- 
D|-4-4-4-4-4-4-6-6-6-6-6-6-6-6-6-6----------------------------------- 
A|------------------------------------------------------------------- 
D|------------------------------------------------------------------- 
pm.............................................(slowly release) 
e|------------------------------------------------------------------- 
B|------------------------------------------------------------------- 
G|-2-2-2-2-2-2-2-2-2-2-2-2-2-2-2-2-6-6-6-6x-----7~------------------- 
D|-2-2-2-2-2-2-2-2-2-2-2-2-2-2-2-2-7-7-7-7x-----7~------------------- 
A|-0-0-0-0-0-0-0-0-0-0-0-0-0-0-0-0-4-4-4-4x-----5~------------------- 
D|------------------------------------------------------------------- 

e|------------------------------------------------------------------- 
B|------------------------------------------------------------------- 
G|------------------------------------------------------------------- 
D|-4-4-4-4-4-4-6-6-6-6-6-6-6-6-6-6-4-4-4-4-4-4-2-2-2-2-2-2-2-2-2-2--- 
A|------------------------------------------------------------------- 
D|------------------------------------------------------------------- 
pm.............................................(slowly release) 

e|------------------------------------------------------------------- 
B|------------------------------------------------------------------- 
G|-2-2-2-2-2-2-2-2-2-2-2-2-2-2-2-2-6-6-6-6x-----7~------------------- 
D|-2-2-2-2-2-2-2-2-2-2-2-2-2-2-2-2-7-7-7-7x-----7~------------------- 
A|-0-0-0-0-0-0-0-0-0-0-0-0-0-0-0-0-4-4-4-4x-----5~------------------- 
D|------------------------------------------------------------------- 

BRAND NEW SONG (x2) 
"Start a brand new song..." 
e|------------------------------------------------------------------- 
B|------------------------------------------------------------------- 
G|-7-7-7-----------------------------------------------4-4--4--4-4-4- 
D|-7-7-7-----------------------------------------------4-4--4--4-4-4- 
A|-5-5-5--4---5-5--5--5-5-5--2-2-2--4---5-5--5--5-5-5--2-2--2--2-2-2- 
D|--------4---5-5--5--5-5-5--2-2-2--4---5-5--5--5-5-5---------------- 

e|----------------|-------------------|------------------------------ 
B|----------------|--(first-time)-----|------(second-time)----------- 
G|-2-2--2--2-2-2--|-------------------|------------------------------ 
D|-2-2--2--2-2-2--|-------------------|------------------------------ 
A|-0-0--0--0-0-0--|--5--5--5--5--5-5--|-5-5--5--5-5-5-5-5--5-5-5-5-5- 
D|----------------|--5--5--5--5--5-5--|-5-5--5--5-5-5-5-5--5-5-5-5-5- 
pm..... 

VIOLIN PART 
"If once, you could only understand..." 
e|------------------------------------------------------------------- 
B|------------------------------------------------------------------- 
G|------------------------------------------------------------------- 
D|------------------------4~--2~--0~--------------------------------- 
A|--2~----0~--------0~-------------------2~----0~-------------------- 
D|------------5~-----------------------------------5~---------------- 

e|------------------------------------------------------------------- 
B|------------------------------------------------------------------- 
G|-2-2-2-2-2-2-2-2-2-2-2-2-2-2-2-2----------------------------------- 
D|-2-2-2-2-2-2-2-2-2-2-2-2-2-2-2-2----------------------------------- 
A|-0-0-0-0-0-0-0-0-0-0-0-0-0-0-0-0-5x-------------------------------- 
D|---------------------------------5x-------------------------------- 
pm........................... 

FAST PART (x2) 
"You were young like me..." 
e|------------------------------------------------------------------- 
B|------------------------------------------------------------------- 
G|-7--7--7--7--7-7-7-7--7--7--7--7--7-7-7-7--5--5--5--5--5-5-5-5----- 
D|-7--7--7--7--7-7-7-7--7--7--7--7--7-7-7-7--5--5--5--5--5-5-5-5----- 
A|-5--5--5--5--5-5-5-5--5--5--5--5--5-5-5-5--3--3--3--3--3-3-3-3----- 
D|------------------------------------------------------------------- 
pm........ .......... .......... 
e|------------------------------------------------------------------- 
B|------------------------------------------------------------------- 
G|-5--5--5--5--5-5-5-5--7--7--7--7--7-7-7-7------------2-2-2-2-2-2-2- 
D|-5--5--5--5--5-5-5-5--7--7--7--7--7-7-7-7------------2-2-2-2-2-2-2- 
A|-3--3--3--3--3-3-3-3--5--5--5--5--5-5-5-5--5-7-5-4-2-0-0-0-0-0-0-0- 
D|------------------------------------------------------------------- 
pm........ .......... ... ..... 
e|------------------------------------------------------------------- 
B|------------------------------------------------------------------- 
G|-2-4-4-4-2-2-2-2--------------------------------------------------- 
D|-2-4-4-4-2-2-2-2--------------------------------------------------- 
A|-0-2-2-2-0-0-0-0--------------------------------------------------- 
D|------------------------------------------------------------------- 
pm. ... 

NEXT FAST PART 
"And now it's time, you took something back...." 
e|------------------------------------------------------------------- 
B|------------------------------------------------------------------- 
G|------------------------------------------------------------------- 
D|------------------------------------------------------------------- 
A|-5--5--5--5--5-5-5-5--5--5--5--5--5-5-5-5--5--5--5--5--5-5-5-5----- 
D|-5--5--5--5--5-5-5-5--5--5--5--5--5-5-5-5--5--5--5--5--5-5-5-5----- 

e|------------------------------------------------------------------- 
B|------------------------------------------------------------------- 
G|----------------------4--4--4--4--4-4-4-4--2--2--2--2--2-2-2-2----- 
D|----------------------4--4--4--4--4-4-4-4--2--2--2--2--2-2-2-2----- 
A|-5--5--5--5--5-5-5-5--2--2--2--2--2-2-2-2--0--0--0--0--0-0-0-0----- 
D|-5--5--5--5--5-5-5-5----------------------------------------------- 

e|------------------------------------------------------------------- 
B|------------------------------------------------------------------- 
G|-------------------------------------------4--4--4--4--4-4-4-4----- 
D|-------------------------------------------4--4--4--4--4-4-4-4----- 
A|-5--5--5--5--5-5-5-5--5--5--5--5--5-5-5-5--2--2--2--2--2-2-2-2----- 
D|-5--5--5--5--5-5-5-5--5--5--5--5--5-5-5-5-------------------------- 

e|------------------------------------------------------------------- 
B|------------------------------------------------------------------- 
G|-2--2--2--2--2-2-2-2----------------------------------------------- 
D|-2--2--2--2--2-2-2-2----------------------------------------------- 
A|-0--0--0--0--0-0-0-0--5--5--5--5--5-5-5-5--5--5--5--5--5-5-5-5----- 
D|----------------------5--5--5--5--5-5-5-5--5--5--5--5--5-5-5-5----- 

e|------------------------------------------------------------------- 
B|------------------------------------------------------------------- 
G|-4~--------------2~------------------------------------------------ 
D|-4~--------------2~------------------------------------------------ 
A|-2~--------------0~--------------5--5-5-5-5-5-5-5-5-5-5-5-5-5-5-5-- 
D|---------------------------------5--5-5-5-5-5-5-5-5-5-5-5-5-5-5-5-- 
pm........................... 

SLOW PRETTY PART 
"When I look into your eyes..." 
e|------------------------------------------------------------------- 
B|------------------------------------------------------------------- 
G|---------------------7-7-7--7--7-7-7-7---7/9\7---7-7-7-7-7--7--7-7- 
D|---------------------7-7-7--7--7-7-7-7-----------7-7-7-7-7--7--7-7- 
A|-0~------------------5-5-5--5--5-5-5-5---5/7\5---5-5-5-5-5--5--5-5- 
D|-0~------------------5-5-5--5--5-5-5-5-----------5-5-5-5-5--5--5-5- 
pm. ....... ....... ... 
e|------------------------------------------------------------------- 
B|------------------------------------------------------------------- 
G|-7\6-6-6\4-4-4\2-------6----6h7-6-4-2----7-7-7x----7-7-7x----7-7-7- 
D|-----------------------------------------7-7-7x----7-7-7x----7-7-7- 
A|-5\4-4-4\2-2-2\0--0~---------------------5-5-5x----5-5-5x----5-5-5- 
D|------------------0~---------------------5-5-5x----5-5-5x----5-5-5- 

e|------------------------------------------------------------------- 
B|-------------------------------------------2---2--2--3-3--2--2-2-2- 
G|-7-7-7x---7-7-7x--------------7--7--6--6---4---4--4--4-4--4--4-4-4- 
D|-7-7-7x---7-7-7x---5h7---------------------4---4--4--4-4--4--4-4-4- 
A|-5-5-5x---5-5-5x--------0--0--5--5--4--4---2---2--2--2-2--2--2-2-2- 
D|-5-5-5x---5-5-5x--------0--0--------------------------------------- 

e|------------------------------------------------------------------- 
B|------------------------------------------------------------------- 
G|-7-7-7--7--7-7-7-7---7/9\7---7-7-7-7-7--7--7-7--7\6-6-6\4-4-4\2---- 
D|-7-7-7--7--7-7-7-7-----------7-7-7-7-7--7--7-7--------------------- 
A|-5-5-5--5--5-5-5-5---5/7\5---5-5-5-5-5--5--5-5--5\4-4-4\2-2-2\0---- 
D|-5-5-5--5--5-5-5-5-----------5-5-5-5-5--5--5-5--------------------- 

e|------------------------------------------------------------------- 
B|---------------------2---2--2--3-3--2--2-2-2--7-7-7x----7-7-7x----- 
G|--------7--7--6--6---4---4--4--4-4--4--4-4-4--7-7-7x----7-7-7x----- 
D|---------------------4---4--4--4-4--4--4-4-4--5-5-5x----5-5-5x----- 
A|-0--0---5--5--4--4---2---2--2--2-2--2--2-2-2--5-5-5x----5-5-5x----- 
D|-0--0-------------------------------------------------------------- 

e|------------------------------------------------------------------- 
B|-7-7-7------------------------------------------------------------- 
G|-7-7-7--6-6-6x---6-6-6x-------------------------------------------- 
D|-5-5-5--7-7-7x---7-7-7x-------------------------------------------- 
A|-5-5-5--4-4-4x---4-4-4x-------------------------------------------- 
D|-----------------------------------------0~------------------------ 


GUITAR 2 PARTS 
INTRO 
"When I look into your eyes..." 
e|------------------------------------------------------------------- 
B|--------------------2---2--2--3-3--2--2-2-2------------------------ 
G|------11-11--9--9---4---4--4--4-4--4--4-4-4--7-7-7--7--7-7-7-7----- 
D|--------------------4---4--4--4-4--4--4-4-4--7-7-7--7--7-7-7-7----- 
A|-0--0--9--9--7--7---2---2--2--2-2--2--2-2-2--5-5-5--5--5-5-5-5----- 
D|-0--0----------------------------------------5-5-5--5--5-5-5-5----- 
pm. ....... 

e|------------------------------------------------------------------- 
B|------------------------------------------------------------------- 
G|-11/12\11-7-7-7-7-7--7--7-7--11\9-9-9\7-7-7\6--------11-11--9--9--- 
D|----------7-7-7-7-7--7--7-7---------------------------------------- 
A|--9/10\9--5-5-5-5-5--5--5-5---9\7-7-7\5-5-5\4---0--0--9--9--7--7--- 
D|----------5-5-5-5-5--5--5-5---------------------0--0--------------- 
pm..... .... 

e|------------------------------------------------------------------- 
B|----2---2--2--3-3--2--2-2-2---------------------------------------- 
G|----4---4--4--4-4--4--4-4-4--7-7-7x----7-7-7x----7-7-7--7-7-7x----- 
D|----4---4--4--4-4--4--4-4-4--7-7-7x----7-7-7x----7-7-7--7-7-7x----- 
A|----2---2--2--2-2--2--2-2-2--5-5-5x----5-5-5x----5-5-5--5-5-5x----- 
D|-----------------------------5-5-5x----5-5-5x----5-5-5--5-5-5x----- 

e|------------------------------------------------------------------- 
B|-----------------------------------2---2--2--3-3--2--2-2-2--------- 
G|-7-7-7x--------------11-11--9--9---4---4--4--4-4--4--4-4-4--7-7-7-- 
D|-7-7-7x----------------------------4---4--4--4-4--4--4-4-4--7-7-7-- 
A|-5-5-5x---------0--0--9--9--7--7---2---2--2--2-2--2--2-2-2--5-5-5-- 
D|-5-5-5x---------0--0----------------------------------------5-5-5-- 
pm. 

e|------------------------------------------------------------------- 
B|------------------------------------------------------------------- 
G|-7--7-7-7-7--11/12\11--7-7-7-7-7--7--7-7--11\9-9-9\7-7-7\6--------- 
D|-7--7-7-7-7------------7-7-7-7-7--7--7-7--------------------------- 
A|-5--5-5-5-5---9/10\9---5-5-5-5-5--5--5-5---9\7-7-7\5-5-5\4---0--0-- 
D|-5--5-5-5-5------------5-5-5-5-5--5--5-5---------------------0--0-- 
pm..... ....... ... 

e|------------------------------------------------------------------- 
B|---------------2---2--2--3-3--2--2-2-2----------------------------- 
G|-11-11--9--9---4---4--4--4-4--4--4-4-4--7-7-7x----7-7-7x----7-7-7-- 
D|---------------4---4--4--4-4--4--4-4-4--7-7-7x----7-7-7x----7-7-7-- 
A|--9--9--7--7---2---2--2--2-2--2--2-2-2--5-5-5x----5-5-5x----5-5-5-- 
D|----------------------------------------5-5-5x----5-5-5x----5-5-5-- 

e|------------------------------------------------------------------- 
B|------------------------------------------------------------------- 
G|-6-6-6x---6-6-6x--------------------------------------------------- 
D|-7-7-7x---7-7-7x--------------------------------------------------- 
A|-4-4-4x---4-4-4x--------------------------------------------------- 
D|------------------------------------------------------------------- 

VERSE 
"I don't know you anymore..." 
e|------------------------------------------------------------------- 
B|------------------------------------------2h3p2---2---------------- 
G|------------------------------------------------4---4-2-4---------- 
D|------------------------------------------------------------------- 
A|------------------------------------------------------------------- 
D|------------------------------------------------------------------- 

e|------------------------------------------------------------------- 
B|------------------------------------------------------------------- 
G|-2-2-2-2-2-2-2-2-2-2-2-2-2-2-2-2-6-6-6-6x-----7~------------------- 
D|-2-2-2-2-2-2-2-2-2-2-2-2-2-2-2-2-7-7-7-7x-----7~------------------- 
A|-0-0-0-0-0-0-0-0-0-0-0-0-0-0-0-0-4-4-4-4x-----5~------------------- 
D|------------------------------------------------------------------- 

e|---------------------------------------------------------------0--- 
B|---------------------------------------------------2h3p2---2-3----- 
G|---------------------------------2-2-2-2-2-2-4-4-4-------4--------- 
D|-4-4-4-4-4-4-6-6-6-6-6-6-6-6-6-6----------------------------------- 
A|------------------------------------------------------------------- 
D|------------------------------------------------------------------- 
pm...............................(slowly release) 

e|------------------------------------------------------------------- 
B|------------------------------------------------------------------- 
G|-2-2-2-2-2-2-2-2-2-2-2-2-2-2-2-2-6-6-6-6x-----7~------------------- 
D|-2-2-2-2-2-2-2-2-2-2-2-2-2-2-2-2-7-7-7-7x-----7~------------------- 
A|-0-0-0-0-0-0-0-0-0-0-0-0-0-0-0-0-4-4-4-4x-----5~------------------- 
D|------------------------------------------------------------------- 

BRAND NEW SONG (x2) 
"Start a brand new song..." 
e|--------------------------------|---------------------------------- 
B|-------(only-play-the-----------|---------------------------------- 
G|-7-7-7-------second-time)-------|--------------------4-4--4--4-4-4- 
D|-7-7-7--------------------------|--------------------4-4--4--4-4-4- 
A|-5-5-5--4--5-5--5--5-5-5--2-2-2-|-4---5-5--5--5-5-5--2-2--2--2-2-2- 
D|--------4--5-5--5--5-5-5--2-2-2-|-4---5-5--5--5-5-5---------------- 

e|----------------|-------------------|------------------------------ 
B|----------------|--(first-time)-----|------(second-time)----------- 
G|-2-2--2--2-2-2--|-------------------|------------------------------ 
D|-2-2--2--2-2-2--|-------------------|------------------------------ 
A|-0-0--0--0-0-0--|--5--5--5--5--5-5--|-5-5--5--5-5-5-5-5--5-5-5-5-5- 
D|----------------|--5--5--5--5--5-5--|-5-5--5--5-5-5-5-5--5-5-5-5-5- 
pm..... 

VIOLIN PART 
"If once, you could only understand..." 
e|--0~----2~-----------------------------0~----2~-------------------- 
B|------------3~-----------------------------------3~---------------- 
G|------------------------------------------------------------------- 
D|------------------------4~--2~--0~--------------------------------- 
A|------------------0~----------------------------------------------- 
D|------------------------------------------------------------------- 

e|------------------------------------------------------------------- 
B|------------------------------------------------------------------- 
G|-2-2-2-2-2-2-2-2-2-2-2-2-2-2-2-2----------------------------------- 
D|-2-2-2-2-2-2-2-2-2-2-2-2-2-2-2-2----------------------------------- 
A|-0-0-0-0-0-0-0-0-0-0-0-0-0-0-0-0-5x-------------------------------- 
D|---------------------------------5x-------------------------------- 
pm........................... 

FAST PART (x2) (this is really the violin part) 
"You were young like me..." 
e|------------------------------------------------------------------- 
B|------------------------------------------------------------------- 
G|------------------------------------------------------------------- 
D|-4--4--4--4--4-4-4-4--4--4--4--4--4-4-4-4--2--2--2--2--2-2-2-2----- 
A|------------------------------------------------------------------- 
D|------------------------------------------------------------------- 
pm........ .......... .......... 
e|------------------------------------------------------------------- 
B|------------------------------------------------------------------- 
G|------------------------------------------------------------------- 
D|-2--2--2--2--2-2-2-2--4--4--4--4--4-4-4-4--7-9-7-5-4--2~-4~--2h4p2- 
A|------------------------------------------------------------------- 
D|------------------------------------------------------------------- 
pm........ .......... 

NEXT FAST PART 
"And now it's time, you took something back...." 
e|------------------------------------------------------------------- 
B|------------------------------------------------------------------- 
G|------------------------------------------------------------------- 
D|------------------------------------------------------------------- 
A|-5--5--5--5--5-5-5-5--5--5--5--5--5-5-5-5--5--5--5--5--5-5-5-5----- 
D|-5--5--5--5--5-5-5-5--5--5--5--5--5-5-5-5--5--5--5--5--5-5-5-5----- 

e|------------------------------------------------------------------- 
B|------------------------------------------------------------------- 
G|----------------------4--4--4--4--4-4-4-4--2--2--2--2--2-2-2-2----- 
D|----------------------4--4--4--4--4-4-4-4--2--2--2--2--2-2-2-2----- 
A|-5--5--5--5--5-5-5-5--2--2--2--2--2-2-2-2--0--0--0--0--0-0-0-0----- 
D|-5--5--5--5--5-5-5-5----------------------------------------------- 

e|------------------------------------------------------------------- 
B|------------------------------------------------------------------- 
G|-------------------------------------------4--4--4--4--4-4-4-4----- 
D|-------------------------------------------4--4--4--4--4-4-4-4----- 
A|-5--5--5--5--5-5-5-5--5--5--5--5--5-5-5-5--2--2--2--2--2-2-2-2----- 
D|-5--5--5--5--5-5-5-5--5--5--5--5--5-5-5-5-------------------------- 

e|------------------------------------------------------------------- 
B|------------------------------------------------------------------- 
G|-2--2--2--2--2-2-2-2----------------------------------------------- 
D|-2--2--2--2--2-2-2-2----------------------------------------------- 
A|-0--0--0--0--0-0-0-0--5--5--5--5--5-5-5-5--5--5--5--5--5-5-5-5----- 
D|----------------------5--5--5--5--5-5-5-5--5--5--5--5--5-5-5-5----- 

e|------------------------------------------------------------------- 
B|------------------------------------------------------------------- 
G|-4~--------------2~------------------------------------------------ 
D|-4~--------------2~------------------------------------------------ 
A|-2~--------------0~--------------5--5-5-5-5-5-5-5-5-5-5-5-5-5-5-5-- 
D|---------------------------------5--5-5-5-5-5-5-5-5-5-5-5-5-5-5-5-- 
pm........................... 





Comments


Popular Yellowcard tabs & chords
With You Around Bass Tabs
Empty Apartment 1 Chords
View From Heaven 3 Chords
Cigarette 2 Tabs
Only One Tabs
Ten Tabs
Twenty Three 1 Tabs
Underdog Tabs
Back Home Ukulele
Gifts And Curses Ukulele


Song lyrics



↑ Back to top | Tablatures and chords are parodies/interpretations of the original songs. You may use it for private study, scholarship, research or language learning purposes only
© 2014 AZChords.com Contact us | Privacy policy | DMCA | Add/correct tabs | Request tabs | Top 50 tabs