>
 >
Date Line

Date Line Guitar Tabs

Yellowcard - Date Line chords, tabs, tablatures, lyrics

Guitar lessons | Add/correct | Request | Top 50 tabs Artists:  A B C D E F G H I J K L M N O P Q R S T U V W X Y Z 0-9

Date Line Guitar Tabs – Yellowcard

CD, Sheet music, Poster

Do you like Date Line? Share with your friends now
Bass TabsBass Tabs v2ChordsTabsUkulele
By-Francis
Location - Carmelite, Lucena City
Cp #- 09287150674 
S H C lucena


Intro-

Guitar1
|----------------------------------------------|
|----------------------------------------------|
|------2----0----------------------------------|
|---2----3-----2------2----3--2--0---2---------|2x
|---0-------------0-----0------------0---------|
|----------------------------------------------|

Verse-
Guitar1
|----------------------------------------------|
|----------------------------------------------|
|------2----0----------------------------------|
|---2----3-----2------2----3--2--0---2---------|8x
|---0-------------0-----0------------0---------|
|----------------------------------------------|


Refrain-

Guitar1
|----------------------------------------------|
|----------------------------------------------|
|-99999999-10101010101010-(5)-10/9\7/9-9\7/5---|
|-xxxxxxxx-x-x-x-x-x-x-x--(5)-x--x-x-x-x-x-x---|
|-77777777-8-8-8-8-8-8-8--(3)-8-/7\5/7-7\5/3---|
|----------------------------------------------|


Guitar2
|----------------------------------------------|
|----------------------------------------------|
|--------------------------5-5---5-5-55-5-5----|
|--------------------------5-5---5-5-55-5-5----|
|--------------------------3-3---3-3-33-3-3----|
|----------------------------------------------|


Guitar1
|----------------------------------------------|
|----------------------------------------------|
|-99999999-10101010101010-(5)-10/9\7/9-9\7/5---|
|-xxxxxxxx-x-x-x-x-x-x-x--(5)-x--x-x-x-x-x-x---|
|-77777777-8-8-8-8-8-8-8--(3)-8-/7\5/7-7\5/3---|
|----------------------------------------------|


Guitar2

|----------------------------------------------|
|----------------------------------------------|
|--------------------------5-5---5-5-55-5-5----|
|--------------------------5-5---5-5-55-5-5----|
|--------------------------3-3---3-3-33-3-3----|
|----------------------------------------------|



Continued...when you...

Guitar1
|---------------------------|---------------------|
|---------------------------|---------------------|
|-4/5--4/5--4/5--4/5--4/5---|--4--4--4--4--4------|
|-x-x--x-x--x-x--x-x--x-x---|--x--x--x--x--x------|
|-2/3--2/3--2/3--2/3--2/3---|--2--2--2--2--2------|
|---------------------------|---------------------|


|-----------------|------------------------------|
|-----------------|------------------------------|
|-5--5--5--5--5---|--4/5--4/5--4/5--4/5--4/5-----|
|-x--x--x--x--x---|--x-x--x-x--x-x--x-x--x-x-----|
|-3--3--3--3--3---|--2/3--2/3--2/3--2/3--2/3-----|
|-----------------|------------------------------|

int-
|----------------------------------------------|
|----------------------------------------------|
|------2----0----------------------------------|
|---2----3-----2------2----3--2--0---2---------|2x
|---0-------------0-----0------------0---------|
|----------------------------------------------|


Repeat Verse-

Refrain-


Guitar1
|----------------------------------------------|-------------|
|----------------------------------------------|-------------|
|-99999999-10101010101010-(5)-10/9\7/9-9\7/5---|-99999999----|
|-xxxxxxxx-x-x-x-x-x-x-x--(5)-x--x-x-x-x-x-x---|-xxxxxxxx----|
|-77777777-8-8-8-8-8-8-8--(3)-8-/7\5/7-7\5/3---|-77777777----|
|----------------------------------------------|-------------|

Guitar2
|----------------------------------------------|-------------|
|----------------------------------------------|-------------|
|--------------------------5-5---5-5-55-5-5----|-------------|
|--------------------------5-5---5-5-55-5-5----|-rocket-fx---|
|--------------------------3-3---3-3-33-3-3----|-------------|
|----------------------------------------------|-------------|


Chorus-

Guitar1 continuous...
|-----------------------------------------------------------------------|
|-----------------------------------------------------------------------|
|--4/5--4/5--4/5--4/5--4/5--4/5--4/5--4/5--4/5--4/5--4/5--4/5--4/5--4/5-|
|--x-x--x-x--x-x--x-x--x-x--x-x--x-x--x-x--x-x--x-x--x-x--x-x--x-x--x-x-|
|--2/3--2/3--2/3--2/3--2/3--2/3--2/3--2/3--2/3--2/3--2/3--2/3--2/3--2/3-|
|-----------------------------------------------------------------------|
Guitar2

|---------------------------------------------|
|---------------------------------------------|
|--5555555------------------------------------|
|--5555555--5555555--7777777--3333333---------|2x
|--3333333--5555555--7777777--3333333---------|
|-----------3333333--5555555--1111111---------|

Guitar3 continuous...

|---------15-15-15---------15-15-15------------|
|-13-13-13--------13-13-13--------13-13-13-13--|
|----------------------------------------------|
|----------------------------------------------|
|----------------------------------------------|
|----------------------------------------------|

Interlude-

Guitar1
|---------------------------|-------------------------------|
|---------------------------|-------------------------------|
|-4/5--4/5--4/5--4/5--4/5---|--4/5--4/5--4/5--4/5--4/5------|
|-x-x--x-x--x-x--x-x--x-x---|--x-x--x-x--x-x--x-x--x-x------|
|-2/3--2/3--2/3--2/3--2/3---|--2/3--2/3--2/3--2/3--2/3------|
|---------------------------|-------------------------------|


Guitar2

|-------------------------|---------------------------------|
|-------------------------|---------------------------------|
|-------------------------|---------------------------------|
|---------------------5-5-|-----------------------------5-5-|
|---------------------5-5-|-----------------------------5-5-|
|---------------------3-3-|-----------------------------3-3-|

Guitar1

|-------------------------|------------------------------|
|-------------------------|------------------------------|
|-4/5--4/5--4/5--4/5--4/5-|------------------------------|
|-x-x--x-x--x-x--x-x--x-x-|-7/9--7/9--7/9--7/9--7/9------|
|-2/3--2/3--2/3--2/3--2/3-|-x-x--x-x--x-x--x-x--x-x------|
|-------------------------|-5/7--5/7--5/7--5/7--5/7------|


Guitar2

|-------------------------|------------------------------|
|-------------------------|------------------------------|
|-------------------------|------------------------------|
|-5-5--5-5--5-5--5-5--5-5-|-5-5--5-5--5-5--5-5--5-5------|
|-5-5--5-5--5-5--5-5--5-5-|-5-5--5-5--5-5--5-5--5-5------|
|-3-3--3-3--3-3--3-3--3-3-|-3-3--3-3--3-3--3-3--3-3------|


Guitar1

|-------------------------|------------------------------|
|-------------------------|------------------------------|
|-4/5--4/5--4/5--4/5--4/5-|-7/9--7/9--7/9--7/9--7/9------|
|-x-x--x-x--x-x--x-x--x-x-|-x-x--x-x--x-x--x-x--x-x------|
|-2/3--2/3--2/3--2/3--2/3-|-5/7--5/7--5/7--5/7--5/7------|
|-------------------------|------------------------------|

Guitar2

|-------------------------|-------------------------------|
|-------------------------|-------------------------------|
|-------------------------|-------------------------------|
|-5-5--5-5--5-5--5-5--5-5-|-5-5--5-5--5-5--5-5--5-5--5555-|
|-5-5--5-5--5-5--5-5--5-5-|-5-5--5-5--5-5--5-5--5-5--5555-|
|-3-3--3-3--3-3--3-3--3-3-|-3-3--3-3--3-3--3-3--3-3--3333-|

2.Bridge


Guitar1

|---------------------------|-------------------------------|
|---------------------------|-------------------------------|
|-4/5--4/5--4/5--4/5--4/5---|--4/5--4/5--4/5--4/5--4/5------|
|-x-x--x-x--x-x--x-x--x-x---|--x-x--x-x--x-x--x-x--x-x------|
|-2/3--2/3--2/3--2/3--2/3---|--2/3--2/3--2/3--2/3--2/3------|
|---------------------------|-------------------------------|

Guitar2
|-------------------------|------------------------------|
|-------------------------|------------------------------|
|-------------------------|------------------------------|
|-5-5--5-5--5-5--5-5--5-5-|-5-5--5-5--5-5--5-5--5-5------|
|-5-5--5-5--5-5--5-5--5-5-|-5-5--5-5--5-5--5-5--5-5------|
|-3-3--3-3--3-3--3-3--3-3-|-3-3--3-3--3-3--3-3--3-3------|


Guitar1

|-------------------------|------------------------------|
|-------------------------|------------------------------|
|-4/5--4/5--4/5--4/5--4/5-|------------------------------|
|-x-x--x-x--x-x--x-x--x-x-|-7/9--7/9--7/9--7/9--7/9------|
|-2/3--2/3--2/3--2/3--2/3-|-x-x--x-x--x-x--x-x--x-x------|
|-------------------------|-5/7--5/7--5/7--5/7--5/7------|

Guitar2

|-------------------------|------------------------------|
|-------------------------|------------------------------|
|-------------------------|------------------------------|
|-5-5--5-5--5-5--5-5--5-5-|-5-5--5-5--5-5--5-5--5-5------|
|-5-5--5-5--5-5--5-5--5-5-|-5-5--5-5--5-5--5-5--5-5------|
|-3-3--3-3--3-3--3-3--3-3-|-3-3--3-3--3-3--3-3--3-3------|


Guitar1

|-------------------------|------------------------------|
|-------------------------|------------------------------|
|-4/5--4/5--4/5--4/5--4/5-|-7/9--7/9--7/9--7/9--7/9------|
|-x-x--x-x--x-x--x-x--x-x-|-x-x--x-x--x-x--x-x--x-x------|
|-2/3--2/3--2/3--2/3--2/3-|-5/7--5/7--5/7--5/7--5/7------|
|-------------------------|------------------------------|

Guitar2

|-------------------------|----------------------------|
|-------------------------|----------------------------|
|-------------------------|-------------------------5~-|
|-5-5--5-5--5-5--5-5--5-5-|-5-5--5-5--5-5--5-5--5-5-5~-|
|-5-5--5-5--5-5--5-5--5-5-|-5-5--5-5--5-5--5-5--5-5-3~-|
|-3-3--3-3--3-3--3-3--3-3-|-3-3--3-3--3-3--3-3--3-3----|


Bridge-


Guitar

|----------------------------------|------------------------------|
|----------------------------------|------------------------------|
|---5------------------------------|------------------------------|
|---5------5-------7------3--------|------------------------------|
|---3------5-------7------3--------|------------------------------|
|----------3-------5------1--------|------------------------------|

Repeat Chorus

Guitar1 continuous...
|-----------------------------------------------------------------------|
|-----------------------------------------------------------------------|
|--4/5--4/5--4/5--4/5--4/5--4/5--4/5--4/5--4/5--4/5--4/5--4/5--4/5--4/5-|
|--x-x--x-x--x-x--x-x--x-x--x-x--x-x--x-x--x-x--x-x--x-x--x-x--x-x--x-x-|
|--2/3--2/3--2/3--2/3--2/3--2/3--2/3--2/3--2/3--2/3--2/3--2/3--2/3--2/3-|
|-----------------------------------------------------------------------|
Guitar2

|---------------------------------------------|
|---------------------------------------------|
|--5555555------------------------------------|
|--5555555--5555555--7777777--3333333---------|2x
|--3333333--5555555--7777777--3333333---------|
|-----------3333333--5555555--1111111---------|

Guitar3 continuous...

|---------15-15-15---------15-15-15------------|
|-13-13-13--------13-13-13--------13-13-13-13--|
|----------------------------------------------|
|----------------------------------------------|
|----------------------------------------------|
|----------------------------------------------|




Continued...
|---------------------------|---------------------|
|---------------------------|---------------------|
|-4/5--4/5--4/5--4/5--4/5---|--4--4--4--4--4------|
|-x-x--x-x--x-x--x-x--x-x---|--x--x--x--x--x------|
|-2/3--2/3--2/3--2/3--2/3---|--2--2--2--2--2------|
|---------------------------|---------------------|

|-----------------|------------------------------|
|-----------------|------------------------------|
|-5--5--5--5--5---|--4/5--4/5--4/5--4/5--4/5-----|
|-x--x--x--x--x---|--x-x--x-x--x-x--x-x--x-x-----|
|-3--3--3--3--3---|--2/3--2/3--2/3--2/3--2/3-----|
|-----------------|------------------------------|





Comments


Popular Yellowcard tabs & chords
Lights And Sounds 2 Bass Tabs
Empty Apartment Chords
Everywhere 1 Chords
Takedown Chords
Waiting Game Chords
City Of Devils Tabs
For Petes Sake (Solo) Tabs
Shadows And Regrets 1 Tabs
Southern Air Tabs
Dont You Forget About Me Ukulele


Song lyrics



↑ Back to top | Tablatures and chords are parodies/interpretations of the original songs. You may use it for private study, scholarship, research or language learning purposes only
© 2014 AZChords.com Contact us | Privacy policy | DMCA | Add/correct tabs | Request tabs | Top 50 tabs