» » »

Pin Tabs

Artists:  A B C D E F G H I J K L M N O P Q R S T U V W X Y Z # 

Pin Tabs

(ver. 1)
Yeah Yeah Yeahs Tabs
 Rating:
4/5 (4 votes)
    Pin lessons Tabs too difficult? Try these video lessons and learn fast
                
Not too sure about the chorus, but it's pretty close, I think.
If you listen to the song, Karen O's singing makes up most of the chorus anyway.

Chords used:

   EADGBe
   ------
G  355---
Em 022---



[Intro/Main riff]
e|-7-7-7-7-x-2-2-2-0-0-0-0-0-0-0-0
B|-0-0-0-0-x-0-0-0-0-0-0-0-0-1-1-1
G|-7-7-7-7-x-2-2-2-0-0-0-0-0-0-0-0
D|--------------------------------
A|--------------------------------
E|--------------------------------

e|-7-7-7-7-x-2-2-2-0-0-0-0-0-3-3-3  (oops, typoed here before...)
B|-0-0-0-0-x-0-0-0-0-0-0-0-0-1-1-1
G|-7-7-7-7-x-2-2-2-0-0-0-0-0-0-0-0
D|--------------------------------
A|--------------------------------
E|--------------------------------


[Pre-chorus]
EmEm EmEm EmEm EmEm

[Chorus]
G G G G G G G G
EmEm EmEm EmEm EmEm (da-da da-da da-da da-da)

I hope that sounds right to everyone else.
            
Submit corrections

↑ Back to top | Yeah Yeah Yeahs Tabs for Pin. Lyrics for acoustic guitar and electric guitar. Tablatures and chords are parodies/interpretations of the original songs. You may use it for private study, scholarship, research or language learning purposes only