>
 >
Maps

Maps Bass Tabs

Yeah Yeah Yeahs - Maps chords, tabs, tablatures, lyrics

Guitar lessons | Add/correct | Request | Top 50 tabs Artists:  A B C D E F G H I J K L M N O P Q R S T U V W X Y Z 0-9

Maps Bass Tabs – Yeah Yeah Yeahs

CD, Sheet music, Poster

Do you like Maps? Share with your friends now
Bass TabsChordsChords v2TabsTabs v2Tabs v10Tabs v11Tabs v3Tabs v4Tabs v5Tabs v6Tabs v7Tabs v8Tabs v9UkuleleUkulele v2
			     MAPS - The Yeah Yeah Yeahs


Tuning: Standard

No bass during the verses. It slides in right before the Chorus starts.

CHORUS

G|-----|-------------------------|-------------------------|
D|-----|-------------------------|-------------------------|
A|-10/-|-15-15-15-15-15-15-15\---|-10-10-10-10-10-10-10/---|
E|-----|-------------------------|-------------------------|

G|-------------------------|-------------------------|
D|-------------------------|-------------------------|
A|-19-19-19-19-19-19-19\---|-10-10-10-10-10-10-10/---|
E|-------------------------|-------------------------|

G|-------------------------|-------------------------|
D|-------------------------|-------------------------|
A|-15-15-15-15-15-15-15-15-|-14-14-14-14-14-14-14-14-|
E|-------------------------|-------------------------|

G|------------------------|-------------------------|
D|-------------------------|-------------------------|
A|-17-17-17-17-17-17-17\---|-10-10-10-10-10-10-10-10-|
E|------------------------|-------------------------|

2nd VERSE (no bass)

CHORUS 2

G|-----|-------------------------|-------------------------|
D|-----|-------------------------|-------------------------|
A|-10/-|-15-15-15-15-15-15-15\---|-10-10-10-10-10-10-10/---|
E|-----|-------------------------|-------------------------|

G|-------------------------|-------------------------|
D|-------------------------|-------------------------|
A|-19-19-19-19-19-19-19\---|-10-10-10-10-10-10-10/---|
E|-------------------------|-------------------------|

G|-------------------------|-------------------------|
D|-------------------------|-------------------------|
A|-15-15-15-15-15-15-15-15-|-14-14-14-14-14-14-14-14-|
E|-------------------------|-------------------------|

G|------------------------|-------------------------|
D|-------------------------|-------------------------|
A|-17-17-17-17-17-17-17\---|-10-10-10-10-10-10-10/---|
E|------------------------|-------------------------|

G|-------------------------|-------------------------|
D|-------------------------|-------------------------|
A|-15-15-15-15-15-15-15\---|-10-10-10-10-10-10-10/---|
E|-------------------------|-------------------------|

G|-------------------------|-------------------------|
D|-------------------------|-------------------------|
A|-19-19-19-19-19-19-19\---|-10-10-10-10-10-10-10/---|
E|-------------------------|-------------------------|

G|-------------------------|-------------------------|
D|-------------------------|-------------------------|
A|-15-15-15-15-15-15-15-15-|-14-14-14-14-14-14-14-14-|
E|-------------------------|-------------------------|

G|------------------------|-------------------------|
D|-------------------------|-------------------------|
A|-17-17-17-17-17-17-17\---|-10-10-10-10-10-10-10-10-|
E|------------------------|-------------------------|

BRIDGE

G|---------------------|-----------------|
D|---------------------|-----------------|
A|-10-10-10-9---10-9--|-----------------|
E|---------------------|---3-3-3-3-5-5---|

G|----------------------|-----------------|
D|----------------------|-----------------|
A|-10-10-10-9---14-14---|-----------------|
E|----------------------|---3-3-3-3-5-5---|

G|---------------------|-----------------|
D|---------------------|-----------------|
A|-10-10-10-9---10-9--|-----------------|
E|---------------------|---3-3-3-3-5-5---|

G|-----------------------|-----------------------|
D|-----------------------|-------------12~-------|
A|-10-10-10-9---14-14-14|-14-10-12-10-10~-------|
E|-----------------------|-----------------------|

GUITAR SOLO (no bass)

Repeat CHORUS 2

Repeat BRIDGE



| /  slide up
| \  slide down
| ~  vibrato





Comments


Popular Yeah Yeah Yeahs tabs & chords
Rich Bass Tabs
Zero Chords
Cheated Hearts 3 Tabs
Date With The Night 1 Tabs
Down Boy 1 Tabs
Maps 3 Tabs
Miles Away Tabs
Phenomena Tabs
Pin Intro Tabs
Hello Tomorrow Ukulele


Song lyrics



↑ Back to top | Tablatures and chords are parodies/interpretations of the original songs. You may use it for private study, scholarship, research or language learning purposes only
© 2014 AZChords.com Contact us | Privacy policy | DMCA | Add/correct tabs | Request tabs | Top 50 tabs