» » »

Maps Bass tabs (ver.1)

Artists:  A B C D E F G H I J K L M N O P Q R S T U V W X Y Z # 

Maps Bass tabs (ver.1)

Yeah Yeah Yeahs
Rating:
5/5 (7 votes)
Tabs too difficult? Try these video lessons and learn fast.
                			     MAPS - The Yeah Yeah Yeahs


Tuning: Standard

No bass during the verses. It slides in right before the Chorus starts.

CHORUS

G|-----|-------------------------|-------------------------|
D|-----|-------------------------|-------------------------|
A|-10/-|-15-15-15-15-15-15-15\---|-10-10-10-10-10-10-10/---|
E|-----|-------------------------|-------------------------|

G|-------------------------|-------------------------|
D|-------------------------|-------------------------|
A|-19-19-19-19-19-19-19\---|-10-10-10-10-10-10-10/---|
E|-------------------------|-------------------------|

G|-------------------------|-------------------------|
D|-------------------------|-------------------------|
A|-15-15-15-15-15-15-15-15-|-14-14-14-14-14-14-14-14-|
E|-------------------------|-------------------------|

G|------------------------¬|-------------------------|
D|-------------------------|-------------------------|
A|-17-17-17-17-17-17-17\---|-10-10-10-10-10-10-10-10-|
E|------------------------¬|-------------------------|

2nd VERSE (no bass)

CHORUS 2

G|-----|-------------------------|-------------------------|
D|-----|-------------------------|-------------------------|
A|-10/-|-15-15-15-15-15-15-15\---|-10-10-10-10-10-10-10/---|
E|-----|-------------------------|-------------------------|

G|-------------------------|-------------------------|
D|-------------------------|-------------------------|
A|-19-19-19-19-19-19-19\---|-10-10-10-10-10-10-10/---|
E|-------------------------|-------------------------|

G|-------------------------|-------------------------|
D|-------------------------|-------------------------|
A|-15-15-15-15-15-15-15-15-|-14-14-14-14-14-14-14-14-|
E|-------------------------|-------------------------|

G|------------------------¬|-------------------------|
D|-------------------------|-------------------------|
A|-17-17-17-17-17-17-17\---|-10-10-10-10-10-10-10/---|
E|------------------------¬|-------------------------|

G|-------------------------|-------------------------|
D|-------------------------|-------------------------|
A|-15-15-15-15-15-15-15\---|-10-10-10-10-10-10-10/---|
E|-------------------------|-------------------------|

G|-------------------------|-------------------------|
D|-------------------------|-------------------------|
A|-19-19-19-19-19-19-19\---|-10-10-10-10-10-10-10/---|
E|-------------------------|-------------------------|

G|-------------------------|-------------------------|
D|-------------------------|-------------------------|
A|-15-15-15-15-15-15-15-15-|-14-14-14-14-14-14-14-14-|
E|-------------------------|-------------------------|

G|------------------------¬|-------------------------|
D|-------------------------|-------------------------|
A|-17-17-17-17-17-17-17\---|-10-10-10-10-10-10-10-10-|
E|------------------------¬|-------------------------|

BRIDGE

G|---------------------|-----------------|
D|---------------------|-----------------|
A|-10-10-10-9---10-9--¬|-----------------|
E|---------------------|---3-3-3-3-5-5---|

G|----------------------|-----------------|
D|----------------------|-----------------|
A|-10-10-10-9---14-14---|-----------------|
E|----------------------|---3-3-3-3-5-5---|

G|---------------------|-----------------|
D|---------------------|-----------------|
A|-10-10-10-9---10-9--¬|-----------------|
E|---------------------|---3-3-3-3-5-5---|

G|-----------------------|-----------------------|
D|-----------------------|-------------12~-------|
A|-10-10-10-9---14-14-14¬|-14-10-12-10-10~-------|
E|-----------------------|-----------------------|

GUITAR SOLO (no bass)

Repeat CHORUS 2

Repeat BRIDGE



| /  slide up
| \  slide down
| ~  vibrato
            
Tabs too difficult? Try these video lessons and learn fast.


comments powered by Disqus
↑ Back to top | Tablatures and chords are parodies/interpretations of the original songs. You may use it for private study, scholarship, research or language learning purposes only