» » »

Yeah Yeah Yeahs, Hysteric Tabs (ver.2)

Artists:  A B C D E F G H I J K L M N O P Q R S T U V W X Y Z # 

Hysteric Tabs (ver.2)

Yeah Yeah Yeahs Tabs
 Rating:
4/5 (4 votes)
Hysteric lessons Tabs too difficult? Try these video lessons and learn fast
                
Tuning: Standard
Gtr 1 = Clean with Reverb
Gtr 2 = Overdrive

Intro Gtr 1:

A#                      (-A#5-  Denotes Gtr 1 playing A# at 6th fret simultaneously)

then Gtr 2:

A#5 x2 

Verse 1

-A#5-

                 F#5             A#5
No longer, no longer
                Eb5             -A#5-
What you ask
             F#5                 A#5
Strange steps,
                 Eb5             -A#5-
Heels turn black
                           F#5             G5
The cinders, the cinders they
              Eb5                  -A#5-
Light the path and these
             F#5    A#5
Strange steps
             Eb5               -A#5-
Take us back, take us back


Chorus

Gtr 1:

   A#            F#            Gm            C5
e|--------------------------------------------|
B|-----3---3----------------------------------|
G|-------3--------2---2------3---3------5---5-|
D|---3--------------3----------5------5---5---|
A|-1------------3----------5--------3---------|
E|------------1----------3--------------------|

Gtr 2:

A#5         F#5
       Flow sweetly,
G5            C5
       Hang heavy
       A#5         F#5
You suddenly complete me,
       G5           C5
You suddenly complete me!
A#5         F#5
       Flow sweetly,
G5            C5
       Hang heavy
       A#5         F#5
You suddenly complete me,
       G5           C5
You suddenly complete me!


A#5                     C5                      D5                      Eb5 slide down to A#5
Ah ah ah ah ahh ah ah ah ah ahh ah ah ah ah ahhah hysteric
A#5                     C5                      D5                      Eb5 slide down to A#5
Ah ah ah ah ahh ah ah ah ah ahh ah ah ah ah ahhah hysterical

A#5 x4

Gtr 1:
   A#
e|-----------|  x4
B|-----3---3-|
G|-------3---|
D|---3-------|
A|-1---------|
E|-----------|


Verse 2

Gtr 2:
                      F#5      A#5
No wonder, no wonder
          Eb5                    A#5 
Other half
              F#5                A#5
Strange steps
                 Eb5             A#5
Heels turn black
                            F#5             G5
The cinders they splinter, and
               Eb5                  A#5
Light the path and these
             F#5                 A#5
strange steps, 
               Eb5                 A#5
Trace us back, trace us back

A#5 x4

Gtr 1:
   A#5                       A#
e|-----------|  x3 e|-----------|
B|-----------|     B|-----3---3-|
G|-----3---3-|     G|-------3---|
D|---3---3---|     D|---3-------|
A|-1---------|     A|-1---------|
E|-----------|     E|-----------|


Chorus

Gtr 1:

   A#            F#            Gm            C5
e|--------------------------------------------|
B|-----3---3----------------------------------|
G|-------3--------2---2------3---3------5---5-|
D|---3--------------3----------5------5---5---|
A|-1------------3----------5--------3---------|
E|------------1----------3--------------------|


A#5         F#5
       Flow sweetly,
G5            C5
       Hang heavy
       A#5         F#5
You suddenly complete me,
       G5           C5
You suddenly complete me!
A#5         F#5
       Flow sweetly,
G5            C5
       Hang heavy
       A#5         F#5
You suddenly complete me,
       G5           C5
You suddenly complete me!


    A#            F#            Gm            C5
e|---------------------------------------------------------------|
B|-----3---3-----------------------------------------------------|
G|-------3--------2---2------3---3------5---5--------------------|
D|---3--------------3----------5------5---5----------------------|
A|-1------------3----------5--------3----------------------------|
E|------------1----------3---------------------------------------|

Parts in brackets played by trumpet

A#5                     C5                      D5                      Eb5 slide down to A#5
(Ah ah ah ah ahh ah ah ah ah ahh ah ah ah ah ahhah) hysteric
A#5                     C5                      D5                      Eb5 slide down to A#5
(Ah ah ah ah ahh ah ah ah ah ahh ah ah ah ah ahhah) hysteric
A#5                     C5                      D5                      Eb5 slide down to A#5
(Ah ah ah ah ahh ah ah ah ah ahh ah ah ah ah ahhah) hysteric
A#5                     C5                      D5                      Eb5 slide down to A#5
(Ah ah ah ah ahh ah ah ah ah ahh ah ah ah ah ahhah) hysteric
A#5                     C5                      D5                      Eb5 slide down to A#5
(Ah ah ah ah ahh ah ah ah ah ahh ah ah ah ah ahhah) hysterical

Whistle to the tune of:

e|-6-3-------------------3--------3-6p3\1-|
B|-----6----3-6-3p1----6---6----6---------|
G|----------------------------------------|
D|----------------------------------------|
A|----------------------------------------|
E|----------------------------------------|
            
Submit corrections

comments powered by Disqus
↑ Back to top | Yeah Yeah Yeahs Tabs for Hysteric. Lyrics for acoustic guitar and electric guitar. Tablatures and chords are parodies/interpretations of the original songs. You may use it for private study, scholarship, research or language learning purposes only