» » »

Yeah Yeah Yeahs, Honeybear Tabs (ver.2)

Artists:  A B C D E F G H I J K L M N O P Q R S T U V W X Y Z # 

Honeybear Tabs (ver.2)

Yeah Yeah Yeahs Tabs
Rating:
5/5 (4 votes)
Honeybear lessons Tabs too difficult? Try these video lessons and learn fast
                -----------------------------------------------------------------------------
                             HONEYBEAR - Yeah Yeah Yeahs
-----------------------------------------------------------------------------


Plz give me a rating ! Hope u enjoy




INTRO (0:00)

e|--------------------------------------------------------------------------|
B|--10-10-10-8-10---8-10-12-13-12-------------------------------------------|
G|--------------------------------------------------------------------------|
D|--------------------------------------------------------------------------|
A|--------------------------------------------------------------------------|
E|-------------------------------------------------------------------------| x2

e|--------------------------------------------------------------------------|
B|--13-13-13--13-15--12-12-12-----------------------------------------------|
G|--------------------------------------------------------------------------|
D|--------------------------------------------------------------------------|
A|--------------------------------------------------------------------------|
E|-------------------------------------------------------------------------| x2


VERSE

Riff 1 (0:15)

e|--------------------------------------------------------------------------|
B|--------------------------------------------------------------------------|
G|--------------------------------------------------------------------------|
D|-7-7--7-7-7---10-10-x-x---5-5-5-------------------------------------------|
A|-7-7--7-7-7---10-10-x-x---5-5-5-------------------------------------------|
E|-5-5--0-5-5---8--8--x-x---3-3-3------------------------------------------| x4 



Riff 2 (0:31)

e|--------------------------------------------------------------------------|
B|--------------------------------------------------------------------------|
G|-------------9-9-7------------5-5--7--------------------------------------|
D|--7----7-----9-9-7----5--5-5--5-5--7--------------------------------------|
A|--7----7-----7-7-5----5--5-5--3-3--5--------------------------------------|
E|--5----5--------------3--3-3----------------------------------------------| x2


2nd time round:-
e|--------------------------------------------------------------------------|
B|--------------------------------------------------------------------------|
G|--------------------------------------------------------------------------|
D|--7----7----7-------------------------------------------------------------|
A|--7----7----7-------------------------------------------------------------|
E|--5----5----5-------------------------------------------------------------|

Then back to Riff 1



Fill 1 (1:05)

e|--------------------------------------------------------------------------|
B|--8--10---10-8------------------------------------------------------------|
G|-------9------9----9---7----7-9-10--10------------------------------------|
D|----------------10---7----7-------10--------------------------------------|
A|--------------------------------------------------------------------------|
E|--------------------------------------------------------------------------|

...Drums-only bit

Riff 1 until end (on A chord)


| /  slide up
| \  slide down
| h  hammer-on
| p  pull-off
| ~  vibrato
| +  harmonic
| x  Mute note
=============================================================================
            

comments powered by Disqus
↑ Back to top | Yeah Yeah Yeahs Tabs for Honeybear. Lyrics for acoustic guitar and electric guitar. Tablatures and chords are parodies/interpretations of the original songs. You may use it for private study, scholarship, research or language learning purposes only