» » »

Think About It Tabs (ver.2)

Artists:  A B C D E F G H I J K L M N O P Q R S T U V W X Y Z # 

Think About It Tabs (ver.2)

Yardbirds
Rating:
0/5 (0 votes)

Hard to play? Try these video lessons and learn fast.
                Think About It (By Jimmy Page)
The Yardbirds
(Edited and revised by Brandon Chutuk)

This is the intro/main riff to Think About It

(Intro)
e-------------------------------------------------------------------|
B-------------------------------------------------------------------|
G-----------17/19--19-19---16-16------------------------------------|
D--17-16-17--------------------17-16-16-----------------------------|
A-------------------------------------------------------------------|
E-------------------------------------------------------------------|
Reapeat once
At the end of the second, time bend the D string when fretted at 16th.

(Main riff)
e--------------------------|
B--------------------------|
G--------------------------|
D----------7---------------|
A--7-8/10-7---10p8\7-------|
E--------------------------|
Repeat this a lot...

(When Relf sings "...have their say")
e--------------------------|
B--------------------------|
G--------------------------|
D----------5---------------|
A--5-6/8-5---8p6\5---------|
E--------------------------|
Page lowers a key at this point, before the solo.


The solo starts off with the intro 3 times and then hits some high notes followed by 
seems to be a precursor to the Dazed and Confused solo(the real fast bit) Listen to the 
and you can get the rhythms.
            
Hard to play? Try these video lessons and learn fast. | Correct




comments powered by Disqus
↑ Back to top | Tablatures and chords are parodies/interpretations of the original songs. You may use it for private study, scholarship, research or language learning purposes only