» » »

Smokestack Lightning Tabs (ver.1)

Artists:  A B C D E F G H I J K L M N O P Q R S T U V W X Y Z # 

Smokestack Lightning Tabs (ver.1)

Yardbirds
Rating:
4/5 (2 votes)

Hard to play? Try these video lessons and learn fast.
                (Intro)
I just did the main riff of the song, and yes its my first time submiting a tab.


----0----3----------------------------------|
-------------------2------------------------|
-------------2/4-------4----2----0----------|
-------------------------------------2--0h2-|
--------------------------------------------|

You can also add a fifth to the first two notes played and good a yardbirds sound.

----0----3----------------------------------|
----0----3---------2------------------------|
-------------2/4-------4----2----0----------|
-------------------------------------2--0h2-|
--------------------------------------------|
            
Hard to play? Try these video lessons and learn fast. | Correct




comments powered by Disqus
↑ Back to top | Tablatures and chords are parodies/interpretations of the original songs. You may use it for private study, scholarship, research or language learning purposes only