>
 >
Heart Full Of Soul 1

Heart Full Of Soul 1 Guitar Tabs

Yardbirds - Heart Full Of Soul 1 chords, tabs, tablatures, lyrics

Guitar lessons | Add/correct | Request | Top 50 tabs Artists:  A B C D E F G H I J K L M N O P Q R S T U V W X Y Z 0-9

Heart Full Of Soul 1 Guitar Tabs – Yardbirds

CD, Sheet music, Poster

Do you like Heart Full Of Soul 1? Share with your friends now
Bass TabsBass Tabs v2ChordsChords v2Chords v3TabsTabs v2Tabs v3Ukulele
-----------------------------------------------------------------------------
                    Heart Full Of Soul Tab by The Yardbirds
-----------------------------------------------------------------------------


Tuning: Standard

Intro:
e|----------------------------------|
B|----------------------------------| Play 4x
G|----------------------------------|
D|---12-12-10h12-14-12-10-12-10-12--|
A|-5--------------------------------|
E|----------------------------------|

Verse:
e|-0-0-00----------0-0-00--0-0-00--|
B|-0-0-00--2-2-22--1-1-11--0-0-00--| Play 4x
G|-0-0-00--2-2-22--0-0-00--0-0-00--|
D|-2-2-22--2-2-22--2-2-22--2-2-22--|
A|-2-2-22----------3-3-33--2-2-22--|
E|-0-0-00------------------0-0-00--|

Chorus:
e|-0-000-000-000--3-3-----------0-000-000-000-|
B|-0-000-000-000--3-3----2-2----0-000-000-000-|
G|-1-111-111-111--0-0----2-2----1-111-111-111-|
D|-2-222-222-222--0-0----2-2----2-222-222-222-|
A|-2-222-222-222--2-2-----------2-222-222-222-|
E|-0-000-000-000--3-3-----------0-000-000-000-|

e|-0-0--3-3--0-000-000-000-|
B|-1-1--3-3--0-000-000-000-|
G|-0-0--0-0--2-222-222-222-|
D|-2-2--0-0--2-222-222-222-|
A|-3-3--2-2--1-111-111-111-|
E|------3-3--0-000-000-000-|

e|-2-2-22----------0--|
B|-4-4-44--2-2-22--0--|
G|-4-4-44--2-2-22--0--|
D|-4-4-44--2-2-22--2--|
A|-2-2-22----------2--|
E|-2-2-22----------0--|

Post-Chorus Riff:
e|--------------------------------|
B|--------------------------------|
G|--------------------------------|
D|-12-12-10h12-14-12-10-12-10-12--|
A|--------------------------------|
E|--------------------------------|

Solo:
e|---------------------|
B|---------------------|
G|---------------------|
D|-------15h17p15------|
A|-17-17----------17~--|
E|---------------------|

e|------------------------|
B|-------------------15~--|
G|----------------17------|
D|-------15h17-19---------|
A|-17-17------------------|
E|------------------------|

e|--------------------|
B|--------------------|
G|--------------------|
D|-------15h17p15-----|
A|-17-17----------17~-|
E|--------------------|

e|-------------------------|
B|-------------------------|
G|-------------------------|
D|-------15h17p15-17b-17b--|
A|-15/17-------------------|
E|-------------------------|

Symbols:
h=hammer on
p=pull off
b=bend
/=slide up
~=vibrato

Well, that's about it. Enjoy.

=============================================================================





Comments


Popular Yardbirds tabs & chords
For Your Love 1 Bass Tabs
Happenings Ten Years Time Ago Bass Tabs
Lost Woman Bass Tabs
Pounds And Stomps Bass Tabs
Good Morning Little Schoolgirl Chords
Over Under Sideways Down Chords
A Certain Girl Tabs
Drinking Muddy Water Intro Tabs
Psycho Daisies Tabs
Still Im Sad 1 Tabs


Song lyrics



↑ Back to top | Tablatures and chords are parodies/interpretations of the original songs. You may use it for private study, scholarship, research or language learning purposes only
© 2014 AZChords.com Contact us | Privacy policy | DMCA | Add/correct tabs | Request tabs | Top 50 tabs