» » »

Yardbirds, A Certain Girl Tabs (ver.1)

Artists:  A B C D E F G H I J K L M N O P Q R S T U V W X Y Z # 

A Certain Girl Tabs (ver.1)

Yardbirds Tabs
Rating:
0/5 (0 votes)
A Certain Girl lessons Tabs too difficult? Try these video lessons and learn fast
                A Certain Girl - The Yardbirds

A great early Eric Clapton Solo
					
		      rpb
E -|-------8----------------------------11----11----11---13b(15)r13--11------------|
B -|--8-10----/13-13-13-13-13-13-13-13-----13----13---------------------13--11--13-|
G -|-------------------------------------------------------------------------------|
D -|-------------------------------------------------------------------------------|
A -|-------------------------------------------------------------------------------|
E -|-------------------------------------------------------------------------------|


E -|-------------------------------------8-------8-------------------------|
B -|---11--8---------------------------8---11b13---------------------10--8-|
G -|----------11\10---8------8---10b11-------------10b12r10--8-------10--8-|
D -|---------------------10--------------------------------------10--------|
A -|-----------------------------------------------------------------------|
E -|-----------------------------------------------------------------------|

				Moves to A     rpb
E -|---------------------------------------5------------------------------8---|
B -|-------8--10b-10b-10b-10b-10b----------5-----------------------8--10------|
G -|-------8--10b-10b-10b-10b-10b-------------7b8r7--5-----5--7/9-------------|
D -|---10-----------------------------------------------7---------------------|
A -|--------------------------------------------------------------------------|
E -|--------------------------------------------------------------------------|

	 rpb
E -|---10b11r10---8----------------------5------5--------------|
B -|---------------10--8--------------5----8b9-----------------|
G -|----------------------9\7--5--7b8------------7b8r7--5------|
D -|-----------------------------------------------------------|
A -|-----------------------------------------------------------|
E -|-----------------------------------------------------------|

	Back to C				     rpb
E -|----------------8-------11----13--11--13b15--13b15r13---------------------|
B -|--------------8----/13-----13--------------------------13--11-13----11--8-|
G -|----------8h9-------------------------------------------------------------|
D -|---7/10-------------------------------------------------------------------|
A -|--------------------------------------------------------------------------|
E -|--------------------------------------------------------------------------|


E -|-----------------------------------------------------------|
B -|-----------------------------------------------------------|
G -|--11/10---8------------------------------------------------|
D -|-------------10--8--10-------------------------------------|
A -|-----------------------------------------------------------|
E -|-----------------------------------------------------------|
            
Submit corrections

comments powered by Disqus
↑ Back to top | Yardbirds Tabs for A Certain Girl. Lyrics for acoustic guitar and electric guitar. Tablatures and chords are parodies/interpretations of the original songs. You may use it for private study, scholarship, research or language learning purposes only