>
 >
A Certain Girl

A Certain Girl Bass Tabs

Yardbirds - A Certain Girl chords, tabs, tablatures, lyrics

Guitar lessons | Add/correct | Request | Top 50 tabs Artists:  A B C D E F G H I J K L M N O P Q R S T U V W X Y Z 0-9

A Certain Girl Bass Tabs – Yardbirds

CD, Sheet music, Poster

Do you like A Certain Girl? Share with your friends now
Bass TabsTabs
The Yardbirds
Written by Allen Toussaint under the pseudonym Naomi Neville; released as 
the B-side of "I Wish You Would"

Intro:
G|------- ------- ------- -------|------- ------- ------- -------|
D|-------------------------------|-------------------------------|
A|-------------------------------|-------------------------------|
E|-------------------------------|----3---3---3---3---3---3---3--|
                                                      Well, there's a

Verse:
G|------- ------- 3------ 5p3----|------- ------- 3------ 5p3----|
D|------------5---------------5--|------------5---------------5--|
A|3------------------------------|3------------------------------|
E|-------------------------------|-------------------------------|
  cer  -  tain girl  I've been in love with   a   long,   long


G|------- ------- 3------ 5p3----|------- ------- 3------ 5p3----|
D|------------5---------------5--|------------5---------------5--|
A|3------------------------------|3------------------------------|
E|-------------------------------|-------------------------------|
  time.               I   can't   tell it                     I
         (What's her name?                No!)

G|------- ------- 3------ 5p3----|------- ------- 3------ 5p3----|
D|------------5---------------5--|------------5---------------5--|
A|3------------------------------|3------------------------------|
E|-------------------------------|-------------------------------|
  can't   re- veal        her     name        un- til I


G|------- ------- 3------ 5p3----|------- ------- 3---5-- 3------|
D|------------5---------------5--|------------5---------------5--|
A|3------------------------------|3------------------------------|
E|-------------------------------|-------------------------------|
  got her.            I   can't   tell it                 Well, I
         (What's her name?                No!)
Refrain:
G|------- ------- ------- -------|------- ------- ------- -------|
D|----------------5---7---5------|----------------5---7---5------|
A|------------7---------------7--|------------7---------------7--|
E|5-------8----------------------|5-------8----------------------|
  tried               to make her time and time again,


G|------- ------- ------- -------|------- ------- ------- -------|
D|----------------5---7---5------|----------------5---7---5------|
A|------------7---------------7--|------------7---------------7--|
E|5-------8----------------------|5-------8----------------------|
      we just are e - nemies, and nothing but friends. And there's a


G|------- ------- 3------ 5p3----|------- ------- ------- -------|
D|------------5---------------5--|----------------3-------5p3----|
A|3------------------------------|------------5---------------5--|
E|-------------------------------|3------------------------------|
  cer  -  tain girl  I've been in love with   a   long,   long


G|------- ------- 3------ 5p3----|------- ------- 3------ 5p3----|
D|------------5---------------5--|------------5---------------5--|
A|3------------------------------|3------------------------------|
E|-------------------------------|-------------------------------|
  time.               I   can't   tell it             Well, there's a
         (What's her name?                No!)
Verse:
G|------- ------- 3------ 5p3----|------- ------- 3------ 5p3----|
D|------------5---------------5--|------------5---------------5--|
A|3------------------------------|3------------------------------|
E|-------------------------------|-------------------------------|
  cer  -  tain chick  I've been   sweet on        since   I


G|------- ------- 3------ 5p3----|------- ------- 3------ 5p3----|
D|------------5---------------5--|------------5---------------5--|
A|3------------------------------|3------------------------------|
E|-------------------------------|-------------------------------|
  met her.            I   can't   tell it                     I
         (What's her name?                No!)

G|------- ------- 3------ 5p3----|------- ------- 3------ 5p3----|
D|------------5---------------5--|------------5---------------5--|
A|3------------------------------|3------------------------------|
E|-------------------------------|-------------------------------|
  can't   re- veal        her     name        un- til I


G|------- ------- 3------ 5p3----|------- ------- 3---5-- 3------|
D|------------5---------------5--|------------5---------------5--|
A|3------------------------------|3------------------------------|
E|-------------------------------|-------------------------------|
  got her.            I   can't   tell it                 Well,
         (What's her name?                No!)
Refrain:
G|------- ------- ------- -------|------- ------- ------- -------|
D|----------------5---7---5------|----------------5---7---5------|
A|------------7---------------7--|------------7---------------7--|
E|5-------8----------------------|5-------8----------------------|
  one day,            I'm gonna   wake up and say:           "I'd


G|------- ------- ------- -------|------- ------- ------- -------|
D|----------------5---7---5------|----------------5---7---5------|
A|------------7---------------7--|------------7---------------7--|
E|5-------8----------------------|5-------8----------------------|
  do  a - ny- thing               just to be your slave. And there's a


G|------- ------- 3------ 5p3----|------- ------- ------- -------|
D|------------5---------------5--|----------------3-------5p3----|
A|3------------------------------|------------5---------------5--|
E|-------------------------------|3------------------------------|
  cer  -  tain girl  I've been in love with   a   long,   long


G|------- ------- 3------ 5p3----|------- ------- 3---5-- 3------|
D|------------5---------------5--|------------5---------------5--|
A|3------------------------------|3------------------------------|
E|-------------------------------|-------------------------------|
  time.               I   can't   tell it
         (What's her name?                No!)
Verse (solo):
G|------- ------- 3------ 5p3----|------- 3---5-- 3------ 5p3----|
D|--------5-------------------5--|----5---------------5-------5--|
A|3------------------------------|3------------------------------|
E|-------------------------------|-------------------------------|



G|------- ------- 3---3-- 5p3----|5p3---- 5p3---- 5p3---- 5p3----|
D|--------5---5---------------5--|----5-------5-------5-------5--|
A|3---3--------------------------|-------------------------------|
E|-------------------------------|-------------------------------|



G|5------ ------- 3---5-- 3------|5------ 3---5-- 3------ 5p3----|
D|--------5---5---------------5--|----5---------------5-------5--|
A|-------------------------------|-------------------------------|
E|-------------------------------|-------------------------------|



G|------- ------- 3------ 5p3----|5p3---- 5p3---- 5p3---- 5p3----|
D|--------5---5---------------5--|----5-------5-------5-------5--|
A|3------------------------------|-------------------------------|
E|-------------------------------|-------------------------------|


Refrain (solo):
G|------- ------- ------- -------|------- ------- ------- -------|
D|----------------5---7---5------|----------------5---7---5------|
A|------------7---------------7--|------------7---------------7--|
E|5-------8----------------------|5-------8----------------------|



G|------- ------- ------- -------|------- ------- ------- -------|
D|----------------5---7---5------|----------------5---7---5------|
A|------------7---------------7--|------------7---------------7--|
E|5-------8----------------------|5-------8----------------------|



G|------- ------- 3------ 5p3----|------- ------- ------- -------|
D|--------5-------------------5--|----------------3-------5p3----|
A|3------------------------------|--------5-------------------5--|
E|-------------------------------|3------------------------------|



G|------- ------- 3------ 5p3----|------- ------- ------- -------|
D|--------5-------------------5--|-------------------------------|
A|3------------------------------|3------------------------------|
E|-------------------------------|-------------------------------|
                                                      Well, I

Refrain:
G|------- ------- ------- -------|------- ------- ------- -------|
D|----------------5---7---5------|----------------5---7---5------|
A|------------7---------------7--|------------7---------------7--|
E|5-------8----------------------|5-------8----------------------|
  tried               to make her time and time again,


G|------- ------- ------- -------|------- ------- ------- -------|
D|----------------5---7---5------|----------------5---7---5------|
A|------------7---------------7--|------------7---------------7--|
E|5-------8----------------------|5-------8----------------------|
      we just are e - nemies, and nothing but friends. And there's a


G|------- ------- 3------ 5p3----|------- ------- ------- -------|
D|------------5---------------5--|----------------3-------5p3----|
A|3------------------------------|------------5---------------5--|
E|-------------------------------|3------------------------------|
  cer  -  tain girl  I've been in love with   a   long,   long


G|------- ------- 3------ 5p3----|------- ------- 3------ 5p3----|
D|------------5---------------5--|------------5---------------5--|
A|3------------------------------|3------------------------------|
E|-------------------------------|-------------------------------|
  time.               I   can't   tell it             Well, there's a
         (What's her name?                No!)
Verse:
G|------- ------- 3------ 5p3----|------- ------- 3------ 5p3----|
D|------------5---------------5--|------------5---------------5--|
A|3------------------------------|3------------------------------|
E|-------------------------------|-------------------------------|
  cer  -  tain chick  I've been   sweet on        since   I


G|------- ------- 3------ 5p3----|------- ------- 3------ 5p3----|
D|------------5---------------5--|------------5---------------5--|
A|3------------------------------|3------------------------------|
E|-------------------------------|-------------------------------|
  met her.            I   can't   tell it                     I
         (What's her name?                No!)

G|------- ------- 3------ 5p3----|------- ------- 3------ 5p3----|
D|------------5---------------5--|------------5---------------5--|
A|3------------------------------|3------------------------------|
E|-------------------------------|-------------------------------|
  can't   re- veal        her     name        un- til I


G|------- ------- 3------ 5p3----|------- ------- 3---5-- 3------|
D|------------5---------------5--|------------5---------------5--|
A|3------------------------------|3------------------------------|
E|-------------------------------|-------------------------------|
  got her.            I   can't   tell it                 Well,
         (What's her name?                No!)
Refrain:
G|------- ------- ------- -------|------- ------- ------- -------|
D|----------------5---7---5------|----------------5---7---5------|
A|------------7---------------7--|------------7---------------7--|
E|5-------8----------------------|5-------8----------------------|
  some day,           I'm gonna   wake up and say:           "I'd


G|------- ------- ------- -------|------- ------- ------- -------|
D|----------------5---7---5------|----------------5---7---5------|
A|------------7---------------7--|------------7---------------7--|
E|5-------8----------------------|5-------8----------------------|
  do  a - ny- thing               just to be your slave. And there's a


G|------- ------- 3------ 5p3----|------- ------- ------- -------|
D|------------5---------------5--|----------------3-------5p3----|
A|3------------------------------|------------5---------------5--|
E|-------------------------------|3------------------------------|
  cer  -  tain girl  I've been in love with   a   long,   long


G|------- ------- 3------ 5p3----|------- ------- 3------ 5p3----|
D|------------5---------------5--|------------5---------------5--|
A|3------------------------------|3------------------------------|
E|-------------------------------|-------------------------------|
  time.               I   can't   tell it             I   can't
         (What's her name?                No!)
Outro:
G|------- ------- 3------ 5p3----|------- ------- 3------ 5p3----|
D|------------5---------------5--|------------5---------------5--|
A|3------------------------------|3------------------------------|
E|-------------------------------|-------------------------------|
  tell it             I   can't   tell it             I   can't
         (No!)                           (No!)

G|------- ------- ------- -------|------- ------- ------- -------|
D|5---3--------------------------|-------------------------------|
A|--------6---3------------------|-------------------------------|
E|-------------------------------|-------------------------------|
  tell it

Please e-mail me for any corrections, or write a comment.





Comments


Popular Yardbirds tabs & chords
For Your Love Bass Tabs
Heart Full Of Soul Chords
I Wish You Would Chords
Shapes Of Things Chords
Got To Hurry Tabs
Happenings Ten Years Time Ago 1 Tabs
Heart Full Of Soul 1 Tabs
Heart Full Of Soul 3 Tabs
Psycho Daisies Tabs
Good Morning Little Schoolgirl Ukulele


Song lyrics



↑ Back to top | Tablatures and chords are parodies/interpretations of the original songs. You may use it for private study, scholarship, research or language learning purposes only
© 2014 AZChords.com Contact us | Privacy policy | DMCA | Add/correct tabs | Request tabs | Top 50 tabs