» » »

Esem Bass tabs (ver.1)

Artists:  A B C D E F G H I J K L M N O P Q R S T U V W X Y Z # 

Esem Bass tabs (ver.1)

Yano
Rating:
5/5 (1 vote)
Tabs too difficult? Try these video lessons and learn fast.
                Esem by Yano

Bass Tab

Eto po ung bass ng esem ng yano not sure po ako sa chorus 1st time ko po kasi mag tab eh...=)

Intro:
Verse 1&2:         
Chords: DBmGA


G|----------------------------------------------|
D|--0--0---0-2-------2-0-2-0-----4-2-4-2--------|
A|-------4------0--0---------2-2-------------0-2|
E|---------------------------------------3-3----|


Chorus:
G|----------------------|
D|----------------------| (3x)
A|------5-7-5------3-5-3|
E|-5--5-------3--3------|
            
Tabs too difficult? Try these video lessons and learn fast.


comments powered by Disqus
↑ Back to top | Tablatures and chords are parodies/interpretations of the original songs. You may use it for private study, scholarship, research or language learning purposes only