» » »

Esem Tabs (ver.1)

Artists:  A B C D E F G H I J K L M N O P Q R S T U V W X Y Z # 

Esem Tabs (ver.1)

Yano
Rating:
4/5 (1 vote)

Tabs too difficult? Try these video lessons and learn fast.
                (Intro)
this is my own version of esem by yano, if you want to get it perfect you must
learn the 1 whole strings bends, hammer pull on and pull off technique. good luck.


 INTRO: chords: D-A-Bm-G

                                                          1 whole bend                   1WB        1WB
                                                                ^                        
^           ^
E--------------------------------------------------------------------------------------------------------|
B--15----------------15----------------------------------------------------------------------------------|
G-----14-12-11-11-12----14-12-11-11h12p11-------11-------------14/14-12h14-12-----------7-9-7---7h9---9--|
D-----------------------------------------12-12----12-12h14-12--^-------------14-12-7h9---^---9-----7-^--|
A--------------------------------------------------------------------------------------------------------|
E--------------------------------------------------------------------------------------------------------|

 1whole bend                         whole bend
E--------------------------------------------------------------------------------------------------------|
B-------------------------------------8------------------------------------------------------------------|
G--9/(9)-7---7h9-7-----7--7---7h9p7-9---14/(14)-12-14-12-------------------------------------------------|
D--^-------9-------7-9--9---9------------^--------------14-12--------------------------------------------|
A--------------------------------------------------------------------------------------------------------|
E--------------------------------------------------------------------------------------------------------|


1st verse
Chords: D-A-Bm-G
            
Tabs too difficult? Try these video lessons and learn fast.


comments powered by Disqus
↑ Back to top | Tablatures and chords are parodies/interpretations of the original songs. You may use it for private study, scholarship, research or language learning purposes only