» » »

Yael Naim, New Soul Tabs (ver.2)

Artists:  A B C D E F G H I J K L M N O P Q R S T U V W X Y Z # 

New Soul Tabs (ver.2)

Yael Naim Tabs
Rating:
4/5 (1 vote)
New Soul lessons Tabs too difficult? Try these video lessons and learn fast
                (Intro)
-------------------------------------------------------------------------------
			     New Soul - Yael Naim
-------------------------------------------------------------------------------

this is a verson by wastedfishstix. I liked it and wanted to learn it but he never 
a tab, so i took the time and learned it and made a tab for all of you.

the video is here:

It is not perfect but it is how i was able to do it. I like how it adds the bass line to 
song. Also, i thought it was kind of hard to use my index finger for the bass line so i use
my thumb. Use what ever works the best for you. watch the video for more help.

Tuning: Drop the E to C
	CADGBE

e|------------------------5----------5--------------------7------|
B|---8-----------8--------6----------6----------5---------9------|
G|---9-----------9--------5----------5----------5---------7------|
D|---10---------10------------------------------7----------------|
A|------------------------------------------0--------------------|
C|-0-----7--12-------7--5-----5--0--------5----------5-7------7--|

Repeat
            
Submit corrections

comments powered by Disqus
↑ Back to top | Yael Naim Tabs for New Soul. Lyrics for acoustic guitar and electric guitar. Tablatures and chords are parodies/interpretations of the original songs. You may use it for private study, scholarship, research or language learning purposes only