» » »

Yael Naim, New Soul Tabs (ver.3)

Artists:  A B C D E F G H I J K L M N O P Q R S T U V W X Y Z # 

New Soul Tabs (ver.3)

Yael Naim Tabs
Rating:
0/5 (0 votes)
New Soul lessons Tabs too difficult? Try these video lessons and learn fast
                --------------------------------------------------------------------------
                             New Soul-Yael Naim
Tuning: Standard

The main chords for the entire song are C, F, Am, G, C 
(Just look at the chords of versions 1 and 2) 

*I just tabbed out the main riff and the bridge. 

*I know there's not really an actual main riff but try it first.

*ITS NOT 100% accurate but at least it will give you something to work with. 

*I used the A minor pentatonic scale to tab this one out.
 
Main Riff: Im a new soul...Or the  "La La La" parts
e|------------------------------------------------------------|
B|----5h8-5---------5h8-5---------5h8-5-3h5-3h5-3h5-----------|
G|--5-------7-5-7-5-------7-5-7-5-------------------5---------|
D|------------------------------------------------------------|
A|------------------------------------------------------------|
E|------------------------------------------------------------|

Bridge: This is a happy end...
e|--------5-8-5-----------------------------------------------|
B|---5--8-----------------------------------------------------|
G|--5---------------------------------------------------------|
D|------------------------------------------------------------|
A|------------------------------------------------------------|
E|------------------------------------------------------------|

Come and give me your hand.
e|------------------------------------------------------------|
B|----8-5-3-5-3-----------------------------------------------|
G|-----------------5------------------------------------------|
D|------------------------------------------------------------|
A|------------------------------------------------------------|
E|------------------------------------------------------------|
            

comments powered by Disqus
↑ Back to top | Yael Naim Tabs for New Soul. Lyrics for acoustic guitar and electric guitar. Tablatures and chords are parodies/interpretations of the original songs. You may use it for private study, scholarship, research or language learning purposes only