» » »

Will Haven, Carpe Diem Tabs (ver.2)

Artists:  A B C D E F G H I J K L M N O P Q R S T U V W X Y Z # 

Carpe Diem Tabs (ver.2)

Will Haven Tabs
Rating:
0/5 (0 votes)
Carpe Diem lessons Tabs too difficult? Try these video lessons and learn fast
                Tuning: Drop D (D A D G B E)

You'll need to listen to the song to figure out the timing.  Its really a shame 
that Will Haven broke up, they are an excellent band.


E|------------------||
B|------------------||
G|------------------||
D|-1-1-1-1-2--------||
A|-1-1-1-1-2--------||
D|-1-1-1-1-2--------|| x8

E|------------------||
B|------------------||
G|------------------||
D|------------------||
A|-000000000000-----||
D|-000000000000-----||

E|------------------||
B|------------------||
G|------------------||
D|-1-1-1-1-2--------||
A|-1-1-1-1-2--------||
D|-1-1-1-1-2--------|| x8

E|------------------||
B|------------------||
G|------------------||
D|-3-3-3-6-6-6------||
A|-3-3-3-6-6-6------||
D|-3-3-3-6-6-6------|| x8

E|------------------|------------------||
B|------------------|------------------||
G|------------------|------------------||
D|-888888888888-----|------------------||
A|-888888888888-----|-000000000000-----||
D|-888888888888-----|-000000000000-----||

E|------------------|------------------|------------------|------------------||
B|------------------|------------------|------------------|------------------||
G|------------------|------------------|------------------|------------------||
D|-1-1-1-1-2--------|-1-1-1-1-2--------|-7-7-7-7-7-7------|-4-4-4-4-4-4------||
A|-1-1-1-1-2--------|-1-1-1-1-2--------|-7-7-7-7-7-7------|-4-4-4-4-4-4------||
D|-1-1-1-1-2--------|-1-1-1-1-2--------|-7-7-7-7-7-7------|-4-4-4-4-4-4------|| x4

E|------------------|------------------||
B|------------------|------------------||
G|------------------|------------------||
D|-7-7-7-7-7-7------|-4-4-4-4-4-4------||
A|-7-7-7-7-7-7------|-4-4-4-4-4-4------||
D|-7-7-7-7-7-7------|-4-4-4-4-4-4------|| x3

E|------------------||
B|------------------||
G|------------------||
D|-3-3-3-6-6-6------||
A|-3-3-3-6-6-6------||
D|-3-3-3-6-6-6------|| x8

E|------------------|------------------|------------------|------------------||
B|------------------|------------------|------------------|------------------||
G|------------------|------------------|------------------|------------------||
D|-5-5-5-5-5-5------|-5-5-5-5-5-5------|-7-7-7-7-7-7------|-3-3-3-3-3-3------||
A|-5-5-5-5-5-5------|-5-5-5-5-5-5------|-7-7-7-7-7-7------|-3-3-3-3-3-3------||
D|-5-5-5-5-5-5------|-5-5-5-5-5-5------|-7-7-7-7-7-7------|-3-3-3-3-3-3------|| x4


E|------------------|------------------||
B|------------------|------------------||
G|------------------|------------------||
D|-0--0-1-1-1-3--33-|-0--1-1-1-3--33-22||
A|-0--0-1-1-1-3--33-|-0--1-1-1-3--33-22||
D|-0--0-1-1-1-3--33-|-0--1-1-1-3--33-22|| x3

E|------------------||
B|------------------||
G|------------------||
D|------------------||
A|------------------||
D|-1--1--1--1--2----||  x4

E|------------------||
B|------------------||
G|------------------||
D|-6-5-4-3-2222-----||
A|-6-5-4-3-2222-----||
D|-6-5-4-3-2222-----|| x12

E|------------------||
B|------------------||
G|------------------||
D|-6-5-4-3-2222-----||
A|-6-5-4-3-2222-----||
D|-6-5-4-3-2222-----|| x4
           xxxx
            

comments powered by Disqus
↑ Back to top | Will Haven Tabs for Carpe Diem. Lyrics for acoustic guitar and electric guitar. Tablatures and chords are parodies/interpretations of the original songs. You may use it for private study, scholarship, research or language learning purposes only