» » »

Will Haven, Carpe Diem Tabs (ver.3)

Artists:  A B C D E F G H I J K L M N O P Q R S T U V W X Y Z # 

Carpe Diem Tabs (ver.3)

Will Haven Tabs
Rating:
0/5 (0 votes)
Carpe Diem lessons Tabs too difficult? Try these video lessons and learn fast
                			
Seeing all these incorrect tabs for this great song made me do it myself... the correct way.
Enjoy.

Drop B tuning  (B,F#,B,E,G#,C#)


Intro...

||-------------||
||----------^--||x8  Pull on down slow on last note.         
||--2-2-2-2-2--||                      

||----------||
||--000000--||x2
||--000000--||

||-------------||
||----------^--||x8           
||--2-2-2-2-2--||                      

||---------^--||
||-------555--||
||--0000-333--||x8  Pull on down slow on last note with little finger.
||--0000-333--||
||--0000-333--||

||----------||
||--888888--||
||--666666--||x4
||--666666--||
||--666666--||

||----------||
||--000000--||x2
||--000000--||

||-------------||
||----------^--||x2           
||--2-2-2-2-2--||  

||----------------||
||--777777777777--||
||--000000666666--||
||--000000666666--||
||--000000666666--||

||-------------||
||----------^--||x2           
||--2-2-2-2-2--||  

||----------------||
||--777777777777--||
||--000000666666--||
||--000000666666--||
||--000000666666--||  

||-------------||
||----------^--||x2           
||--2-2-2-2-2--||  

||----------------||
||--777777777777--||
||--000000666666--||
||--000000666666--||
||--000000666666--||

||-------------||
||----------^--||x2           
||--2-2-2-2-2--||  


||--777777777777--||
||--000000666666--||X4
||--000000666666--||
||--000000666666--||

||-------------||
||-------555^--||
||--0000-333---||x8
||--0000-333---||
||--0000-333---||

||----------------------------||
||--555555555555888888444444--||
||--555555555555888888444444--||x4 
||--555555555555888888444444--||                                    


||-------------------------------------||
||-------------------------------------||
||-0~-00-03---3-3-0---00-03---32-21-0--||

||-------------------------------------------------------------------||
||--77777777----------777777--------77777777---------7777------------||
||--00000000----------000000--------00000000---------0000------------|| x2  
||--55555555----------555555-----0--55555555---------5555---------0--||      
||--00000000-00-03----000000-3-3-0--00000000-00-03---0000-32--21--0--||              


||-------------||	
||----------^--||x4     W/ EQ effect: treble with bass taken out       
||--1-1-1-1-1--||            
 
||----------00000~-||
||----------00000~-||  Let open strings ring out
||----------00000~-|| 
||-----------------||x4
||-----------------||
||--5-3-2-1--------||


||---------------||
||--44444--------||
||--00000--------||x4
||--55555--------||
||--------3-2-1--||

              Pm
||------------------||
||------------------||x4
||------------------||
||--5-3-2-1---xxxx--||

Hope you enjoyed rocking out to that... Peace.
            
Submit corrections

comments powered by Disqus
↑ Back to top | Will Haven Tabs for Carpe Diem. Lyrics for acoustic guitar and electric guitar. Tablatures and chords are parodies/interpretations of the original songs. You may use it for private study, scholarship, research or language learning purposes only