» » »

Widespread Panic, Little Lilly Tabs (ver.1)

Artists:  A B C D E F G H I J K L M N O P Q R S T U V W X Y Z # 

Little Lilly Tabs (ver.1)

Widespread Panic Tabs
 Rating:
4/5 (4 votes)
Little Lilly lessons Tabs too difficult? Try these video lessons and learn fast
1
                Little Lilly 
Widespread Panic
Dont Tell The Band

Intro:
e--15--15--12--12--------------------------------------------------------------------
B------------------15--15--12--12/13----------12-------------------------------------
G-------------------------------------14--12------14------------10--10------10--12/14
D-------------------------------------------------------10--12----------12-----------
A------------------------------------------------------------------------------------
E------------------------------------------------------------------------------------

Verse:
e------------------------------------------------------------------------------------
B------------------------------------------------------------------------------------
G--7----5----7--7--7----5---------------- this goes throught verse-------------------
D--7----5----7--7--7----5------------------------------------------------------------
A--5----3----5--5--5----3------------------------------------------------------------
E--x----x----x--x--x----x------------------------------------------------------------

Chorus:
e------------------------------------------------------------------------------------
B------------------------------------------------------------------------------------G------------9----7--------7--7/9--7--6----------------------------------------------
D--5----7----9----7------------------------------------------------------------------
A--5----7----7----5------------------------------------------------------------------
E--3----5----0----0------------------------------------------------------------------

Im not as good as Mikey Houser so i show respect and just play the verse chords if i cover if u dare try it i believe you will fing either key of c or g

Thanks Mark Salmon
            
Submit corrections

comments powered by Disqus
↑ Back to top | Widespread Panic Tabs for Little Lilly. Lyrics for acoustic guitar and electric guitar. 1 Tablatures and chords are parodies/interpretations of the original songs. You may use it for private study, scholarship, research or language learning purposes only