» » »

Ain Life Grand Tabs (ver.1)

Artists:  A B C D E F G H I J K L M N O P Q R S T U V W X Y Z # 

Ain Life Grand Tabs (ver.1)

Widespread Panic
Rating:
0/5 (0 votes)

Hard to play? Try these video lessons and learn fast.
                Ain't Life Grand 
Widespread Panic
Ain't Life Grand

Standard (EADGBe)

Intro and Verse and bridge after verse
e--3--3----2--2----0--0-------------------------------------------------------
B--3--3----3--3----0--0-------------------------------------------------------
G--0--0----2--2----0--0--strum E minor to complete the measure----------------
D--0--0----0--0----2--2-------------------------------------------------------
A--2--2----x--x----2--2-------------------------------------------------------
E--3--3----x--x----0--0-------------------------------------------------------

Chorus(its a mode so just play what feels right)
e-----------------------------------------------------------------------------
B-----------------------------------------------------------------------------
G---------------------------3-------------------------------------------------
D--5------------------------3--3-------repeat as needed-----------------------
A--5----5-5-6-7--5-5-6-7----1--3----------------------------------------------
E--3---------------------------1----------------------------------------------

Forget the solo just play in g major and listen to song many times
Thanks 
Mark Salmon
            
Hard to play? Try these video lessons and learn fast. | Correct




comments powered by Disqus
↑ Back to top | Tablatures and chords are parodies/interpretations of the original songs. You may use it for private study, scholarship, research or language learning purposes only