» » »

Little Lilly Chords (ver.1)

Artists:  A B C D E F G H I J K L M N O P Q R S T U V W X Y Z # 

Little Lilly Chords (ver.1)

Widespread Panic
Rating:
5/5 (2 votes)

Hard to play? Try these video lessons and learn fast.
                Bass Intro:
    /   /     /   /         /   /     /   /
|------------------------|--------------------|
|------------------------|--------------------|
|------------------------|--------------------|
|------------------------|--------------------|
|---5------h--3------h---|--5------h--3-------|
|---------3^5-------3^5--|--------3^5---5-3---|

Guitar Intro:
    /     /     /     /         /     /     /       /
|------15-15-12-12-----------|---------------------------|
|------------------15-15-12--|--12-----------------------|
|----------------------------|-----14-14-12-14(b16)-14---|
|----------------------------|---------------------------|
|----------------------------|---------------------------|
|----------------------------|---------------------------|
    D                                       C

    /     /     /     /         /       /      /    /
|----------------------------|---------------------------|
|----------------------------|---------------------------|
|------------10----10-12-10--|--12(b14)-12-10-12-10------|
|------10-12-----------------|----------------------12---|
|----------------------------|---------------------------|
|----------------------------|---------------------------|
    D                                         C


Verse 1:
D           C       D       C
Lilly likes Beatles songs
    D         C                   C         C
The words are off, but they don't feel that wrong
    D       C           D       C             D
She came in through the bedroom window like a blue girl
       C                 D    C
Like a blue girl, like a blue   girl

Verse 2:
Never has to try too hard
Her whispered words could mend broken hearts
Her sundress shines through a hurricane
Making all boys squeal like swine before pearls

Chorus:
D    C        D       C
Hey,   little Lilly,
D             C              D     C
Don't believe everything you see
D    C        D       C
Hey,   little Lilly,
D             C              D     C
Don't believe everything you see
G                      G
'Round and 'round and 'round she goes
       A                         G
Like a sweetheart's curls at the movie show
E                       D
Lilly leans back in the very last row
    F                  A              D
The lights go low, the show goes on

Verse 3:
Even schoolgirls like her way
Oh, marry the preacher, you'd make a little angel someday
Silent as a child when the first snows fall
Perfect player in anyone's own little world

(Chorus)

Jam over main groove
D > A > E > E
Back to main groove

(Repeat Verse 1)
It's only real if you believe (Hey little Lilly)
It's only real if you believe (Hey little Lilly)
            
Hard to play? Try these video lessons and learn fast. | Correct




comments powered by Disqus
↑ Back to top | Tablatures and chords are parodies/interpretations of the original songs. You may use it for private study, scholarship, research or language learning purposes only