» » »

Widespread Panic, Blue Indian Tabs (ver.2)

Artists:  A B C D E F G H I J K L M N O P Q R S T U V W X Y Z # 

Blue Indian Tabs (ver.2)

Widespread Panic Tabs
Rating:
0/5 (0 votes)
Hard to play? Try these video lessons and learn fast.
                Standard Tuning

Intro: This is not the exact way JB plays this song but its sounds pretty good.  Also if you use some hammer-ons.

E--- --1-1-0-1----1-0-1-----1-1-1-1-3--
B--- --3-3-3-3----3-3-3-----3-3-3-3-0--
G--- --2-2-2-2----2-2-2-----2-2-2-2-0--
D---0-0-0-0-0--0-0-0-0—0------------0--
A-----------------------------------2--
E-----------------------------------3—
		          G chord is strummed a couple times

E--- --1-1-0-1----1-0-1-----1-1-1-1-3--
B--- --3-3-3-3----3-3-3-----3-3-3-3-0--
G--- --2-2-2-2----2-2-2-----2-2-2-2-0--
D---0-0-0-0-0--0-0-0-0—0------------0--
A-----------------------------------2--
E-----------------------------------3—
		          G
            

comments powered by Disqus
↑ Back to top | Widespread Panic Tabs for Blue Indian. Lyrics for acoustic guitar and electric guitar. Tablatures and chords are parodies/interpretations of the original songs. You may use it for private study, scholarship, research or language learning purposes only