» » »

You're All I Need Tabs (ver.3)

Artists:  A B C D E F G H I J K L M N O P Q R S T U V W X Y Z # 

You're All I Need Tabs (ver.3)

White Lion
Rating:
4/5 (20 votes)

Tabs too difficult? Try these video lessons and learn fast.
                You're all that I need (SOLO)
White Lion
Done      : January 8, 2005 (10:35am)


Hello to all my co-guitarist Jorgen Bruan, Alvin Prado, Janjan Pantua>>(thanks to your
guitar).To all my classmates in University of Luzon (Michael Quinto, Dennis Bruan,
Michelle Arzadon, Chairman, Reynald) This is all for you hope you'll enjoy it. And of
course to my dearest one Ruthie Ann Torralba of PhilCST...

Note: Please listen to the music while playing it to know how fast to pick the tabs...I
will also give the plucking of this as soon as I'm done encoding it. Have fun!!!

e|-----------7--------------------14--12h14p12-—12-10--9----||
B|------8-10---10-------10----------------------------------||
G|----------------7/9-9------9/11---------------------------||
D|---10-----------------------------------------------------||
A|----------------------------------------------------------||
E|----------------------------------------------------------||


e|------------10—--9h10p9---10--9---------------------------||
B|---7h8p7-------------------------10--5h7—7^---------------||
G|----------------------------------------------------------||
D|----------------------------------------------------------||
A|----------------------------------------------------------||
E|----------------------------------------------------------||


e|---14^--14p12p10------17—-19--15--14----------------------||
B|------------------14------------------10------------------||
G|----------------------------------------------------------||
D|----------------------------------------------------------||
A|----------------------------------------------------------||
E|----------------------------------------------------------||


e|---13^--13p12p10---—--7--9^v--7h9p7------12-15--17--19-17-||
B|------------------12-----------------8--------------------||
G|----------------------------------------------------------||
D|----------------------------------------------------------||
A|----------------------------------------------------------||
E|----------------------------------------------------------||
                                                     "The FIEZER"


Legend:

h       - hammer-on
p       - pull-off
^       - bent up
v       - down
/       - slide up
            
Tabs too difficult? Try these video lessons and learn fast.


comments powered by Disqus
↑ Back to top | Tablatures and chords are parodies/interpretations of the original songs. You may use it for private study, scholarship, research or language learning purposes only