>
 >
You're All I Need

You're All I Need Guitar Tabs

White Lion - You're All I Need chords, tabs, tablatures, lyrics

Guitar lessons | Add/correct | Request | Top 50 tabs Artists:  A B C D E F G H I J K L M N O P Q R S T U V W X Y Z 0-9

You're All I Need Guitar Tabs – White Lion

CD, Sheet music, Poster

Do you like You're All I Need? Share with your friends now
TabsTabs v2Tabs v3
-------------------------------------------------------------------------------
			      your all i need - white lion
-------------------------------------------------------------------------------

Tuning: standard

Intro
e|---------------------------------------------------------------------|
B|---------3-2-----------------0----2---2h3----------------------------|
G|-----2-------2-----------------0---0---------------------------------|2x
D|-------0-------------------------------------------------------------|
A|-------------------------2-------------------------------------------|
E|--2-------------------3----------------------------------------------|

e|------------------------------------------------------2----2h3--2----|
B|---------3-2--------------0----------2-------------3---3-------------|
G|-----2--------2-------------0---------2----------2-------------------|
D|-------0--------------------------2-----------0----------------------|
A|------------------------2------0-------------------------------------|
E|--2-------------------3----------------------------------------------|



    verse 1
e|---------------------------------------------------------------------|
B|----------3-2----------------0----2----2h3---------------------------|
G|-----2--------2-----------------0---0--------------------------------|
D|-------0-------------------------------------------------------------|
A|--------------------------2------------------------------------------|
E|--2--------------------3---------------------------------------------|
   i know that shes wating   
   

e|----------3-2--------------------------0-----------------------------|
B|------------------------------2----3-----3---------------------------|
G|---------------------------------2---2-------------------------------|
D|------2--------------------2-----------------------------------------|
A|----2-------------------0--------------------------------------------|
E|--0------------------------------------------------------------------|
   for me to stay forever 


e|---------------------------------------------------------------------|
B|----------3-2----------------0----2----2h3---------------------------|
G|-----2--------2-----------------0---0--------------------------------|
D|-------0-------------------------------------------------------------|
A|--------------------------2------------------------------------------|
E|--2--------------------3---------------------------------------------|
   i know that i sometimes
            
e|----------3-2--------------------------0-----------------------------|
B|------------------------------2----3-----3---------------------------|
G|---------------------------------2---2-------------------------------|
D|------2--------------------2-----------------------------------------|
A|----2-------------------0--------------------------------------------|
E|--0------------------------------------------------------------------|
   just don't know how to tell her


e|---------------------------------------------------------------------|
B|----------3-2------------------0---2---2h3---------------------------|
G|-----2--------2------------------0---0-------------------------------|
D|-------0-------------------------------------------------------------|
A|----------------------------2----------------------------------------|
E|--2----------------------3-------------------------------------------|
   i want to hold and kiss her


e|-----------3-2---------------------3-----------2---2h3-2-------------|
B|--------------------------------2----2-------3---3-------------------|
G|-------------------------------------------2-------------------------|
D|-------2---------------------2-----------0---------------------------|
A|-----2--------------------0------------------------------------------|
E|--0------------------------------------------------------------------|
    give her my love             make her belive

e|--------------------------------2---2h3---|  |-----------------------|
B|-------0-----0----------------3---3-------|  |------0---------2------|
G|---------------2-----------2--------------|2x|-------------------2---|
D|-----------------2-------0----------------|  |---------0-----2-------|
A|-----2----0--------2----------------------|  |----2--------0---------|
E|---3--------------------------------------|  |---3-------------------|
s       she doesnt know


   Chorus:
            D                           G               A 
e|-------2----------------2---------------3---------------0------------|
B|---------3------------3---3---------------3---------------2----------|
G|----2------2--------2-----------------0--------------2------2--------|
D|--0------------------------------------------------2-----------------|
A|-------------------------------------------------0-------------------|
E|----------------2-----------------3----------------------------------|
   you're all i need beside me  girl you're all i need to turn my world

           D                            G               A
e|-------2--------------------2------------3-------------0-------------|
B|---------3----------------3---3------------3-------------2-----------|
G|----2------2-----------2--------------0------------2-------2---------|
D|--0----------------------------------------------2-------------------|
A|-----------------------------------------------0---------------------|
E|------------------2----------------3---------------------------------|
   you're all i want inside my heart your all i need when we're apart
 
          G        A
e|-------3--------------|
B|---------3-------2----|
G|----0------0-----2----|
D|-----------------2----|
A|-----------------0----|
E|--3-------------------|


(Do the intro)

verse2: (same pattern as verse1)

	i know that she's always there when i need her love and
	i know that i never told her how much i love her
	i see her face before me, i look in her eyes wondering why
	she doesn't know, she doesn't know, she doesn't know!!!


Repeat: Chorus                        

(plackin) "PLs.rate" so i can edit"  :-* thnks!!

Bridge:
Bm             A            G---              Em                         D-A
 say, say that you'll be there whenever i reach out to feel you hand in my
Bm             A            G                 Em                       D-A  
 stay stay within my heart whenever i'm alone i know that you are there
 D
 owhooo hooo hooooooooo...
   
Adlib: chorus chords (Strum) " i know the lead but im kindah tired"


Outro:
   D  -  A  -  G    - F#              D   -     A    -    D    
All that i need is for you to belive, all that i need is you
      D                         A                  G
e|------------2------------------0-----------------3-5-3----------------|
B|-------3------3--------------2---2-------------3-------3--------------|
G|-----2----2-----2----------2-------2---------4-----------4------------|
D|---0---------------------2-----------------5--------------------------|
A|-----------------------0----------------------------------------------|
E|----------------------------------------------------------------------|

      F#                     D               A
e|----------3-5-3--------------2-----------------0----------------------|
B|-------3--------3--------------3-----------------2--------------------|
G|-----3------------3--------2-----2----------2------2------------------|
D|---5---------------------0----------------2---------------------------|
A|----------------------------------------0-----------------------------|
E|----------------------------------------------------------------------|

                      D
e|-------------2h3-2--0-----2-------------------------------------------|
B|-------3------------------3-------------------------------------------|
G|-----2----2---------------2-------------------------------------------|
D|--0-----------------------0-------------------------------------------|
A|----------------------------------------------------------------------|
E|----------------------------------------------------------------------|





Comments


Popular White Lion tabs & chords
Love Dont Come Chords
Till Death Do Us Part 1 Chords
You¹Re All I Need Chords
All Join Our Hands Tabs
Hungry Tabs
Sweet Little Loving Tabs
Tell Death Do Us Part Tabs
Till Death Do Us Part 2 Tabs
When The Children Cry 1 Tabs
Youre All That I Need 1 Tabs


Song lyrics



↑ Back to top | Tablatures and chords are parodies/interpretations of the original songs. You may use it for private study, scholarship, research or language learning purposes only
© 2014 AZChords.com Contact us | Privacy policy | DMCA | Add/correct tabs | Request tabs | Top 50 tabs