>
 >
Youre All That I Need

Youre All That I Need Guitar Tabs

White Lion - Youre All That I Need chords, tabs, tablatures, lyrics

Guitar lessons | Add/correct | Request | Top 50 tabs Artists:  A B C D E F G H I J K L M N O P Q R S T U V W X Y Z 0-9

Youre All That I Need Guitar Tabs – White Lion

CD, Sheet music, Poster

Do you like Youre All That I Need? Share with your friends now
TabsTabs v2Tabs v3Tabs v4
natapos na din.../thx sa master ko c kuya kox n nagturo sakin magguitara 
at sa ragnarok iris server pm me ssj3 o ung friend ko c -mdgb- o ung main GM c lenux ...
RGM kmi ngaun ¶he Prophecy >90+ loyal po khit hndi adik 
basta WOE active...vote nio po ulit..



Intro:
      
e|-------------|-----------------|   
B|-----3-3-2-0-|-----0---2---2h3-|   
G|-------------|---0---0---0-----|2x 
D|---0---------|-----------------|   
A|--0----------|-----------------|   
E|-2-----------|-3---------------|   

e|--------------|----------------|-------2---2h3-2---|
B|-------3-3-2-0|-----0-------2--|-----3---3---------|
G|--------------|---0---0---2---2|---2---------------|
G|-----0--------|---------2------|-0-----------------|
D|---0----------|----------------|-------------------|
E|-2------------|-3--------------|-------------------|

verse1:
   i know that she's waiting             for me to say forever
e|-------------|-----------------  e|-------3-2------------0--------|
B|-----3-3-2-0-|-----0---2---2h3-  B|-----------0------2-----2------|
G|-------------|---0---0---0-----  G|-----0------0---2---2-----2----|
D|---0---------|-----------------  D|---2----------2----------------|
A|--0----------|-----------------  A|-2-----------------------------|
E|-2-----------|-3---------------  E|-------------------------------|



   i know that i sometimes            just don't know how to tell her
e|-------------|-----------------  e|-------3-2------------0--------|
B|-----3-3-2-0-|-----0---2---2h3-  B|-----------0------2-----2------|
G|-------------|---0---0---0-----  G|-----0------0---2---2-----2----|
D|---0---------|-----------------  D|---2----------2----------------|
A|--0----------|-----------------  A|-2-----------------------------|
E|-2-----------|-3---------------  E|-------------------------------|




  i want to hold and kiss her        
e|-------------|-----------------  
B|-----3-3-2-0-|-----0---2---2h3-  
G|-------------|---0---0---0-----  
D|---0---------|-----------------  
A|--0----------|-----------------  
E|-2-----------|-3---------------  

      give her my love, make her believe
e|-------3-2------------------|-------2-2h3----|
B|-----------0-----2-------3--|-----3-------3--|
G|-----0------0--2---2---0---0|---2------------|
D|---2---------2--------------|-0--------------|
A|-2--------------------------|----------------|
E|----------------------3-----|----------------|





           she doesn't know
e|-----------------|-------2-2h3----|   |-----------------|
B|-----3--------2--|-----3-------3--|   |-----3-------2---|
G|---0---0----2---2|---2------------|2x |---0---0---2---2-|
D|----------2------|-0--------------|   |---------2-------|
A|-----------------|----------------|   |-----------------|
E|-3---------------|----------------|   |-3---------------|

chorus: 


    D            F#m            G                 A
    you're all i need beside me girl you're all i need to turn my world
          D               F#m              G                 A
e|---------2------|---------2------|---------3------|---------0-------|
B|-----3-----3---3|-----2-----2---2|-----3-----3---3|-----2-----2---2-|
G|---2---2-----2--|---2---2-----2--|---0---0-----0--|---2---2-----2---|
D|-0--------------|----------------|----------------|-2---------------|
A|----------------|----------------|----------------|-----------------|
E|----------------|-2--------------|-3--------------|-----------------|


  D            F#m            G                A               G
  you're all i want inside my heart your all i need when we're apart
         D               F#m                G                A
e|---------2------|---------2------|---------3------|---------0-------|
B|-----3-----3---3|-----2-----2---2|-----3-----3---3|-----2-----2---2-|
G|---2---2-----2--|---2---2-----2--|---0---0-----0--|---2---2-----2---|
D|-0--------------|----------------|----------------|-2---------------|
A|----------------|----------------|----------------|-----------------|
E|----------------|-2--------------|-3--------------|-----------------|

  you're all that i need
         G           G         
e|---------3-------|-3--|
B|-----3-----3---3-|-3--|
G|---0---0-----0---|-0--|
D|-----------------|-0--|
A|-----------------|-2--|
E|-3---------------|-3--|


(Do the intro)

verse2: (same pattern as verse1)

	i know that she's always there when i need her love and
	i know that i never told her how much i love her
	i see her face before me, i look in her eyes wondering why
	she doesn't know, she doesn't know, she doesn't know!!!

chorus: (same)

bridge:
 Bm                     G              Em                              A
 say, say that you'll be there whenever i reach out to feel you hand in my
 D                   G              Em                            A
 stay stay within my heart whenever i'm alone i know that you are there
 A
 whooo hooo hoooooooooooooo!!!!!!!!!!!!

solo: G A D Bm 2x G A - sa back-up guitarist lng po yan ung sa lead hirap eh...

outro:
  D          Am   G                Gm   D          G           D        
  all that i need is for you to be near all that i need is you
  
         D                 Am               G                  Gm
e|---------2-----2|---------0-----0-|---------3-----0 |---------3-----3-|
B|-----3-----3----|-----1-----1-----|-----3-----3-----|-----3-----3-----|
G|---2---2-----2--|---2---2-----2---|---0---0-----0---|---3---3-----3---|
D|-0--------------|-2---------------|-----------------|-----------------|
A|----------------|-----------------|-----------------|-----------------|
E|----------------|-----------------|-3---------------|-3---------------|
          D         G            D          D            
e|---------2-----2|-3-|---------2h3-2-0-2-|-2-|
B|-----3-----3----|-3-|-----3-------------|-3-|
G|---2---2-----2--|-0-|---2---2-----------|-2-|
D|-0--------------|-0-|-0-----------------|-0-|
A|----------------|-2-|-------------------|-0-|
E|----------------|-3-|-------------------|-0-|

rate nio po ha....





Comments


Popular White Lion tabs & chords
Little Fighter Chords
Blue Monday Tabs
Broken Heart 1 Tabs
Lady Of The Valley Tabs
When The Children Cry (Intro) Tabs
You're All I Need Tabs
Youe All I Need Tabs
Youre All I Need Tabs
Youre All That I Need 1 Tabs
Broken Heart Ukulele


Song lyrics



↑ Back to top | Tablatures and chords are parodies/interpretations of the original songs. You may use it for private study, scholarship, research or language learning purposes only
© 2014 AZChords.com Contact us | Privacy policy | DMCA | Add/correct tabs | Request tabs | Top 50 tabs