>
 >
Radar Love 1

Radar Love 1 Guitar Tabs

White Lion - Radar Love 1 chords, tabs, tablatures, lyrics

Guitar lessons | Add/correct | Request | Top 50 tabs Artists:  A B C D E F G H I J K L M N O P Q R S T U V W X Y Z 0-9

Radar Love 1 Guitar Tabs – White Lion

CD, Sheet music, Poster

Do you like Radar Love 1? Share with your friends now
TabsTabs v2
I found this tab on tabheaven.com and thought that noone else would want to spen =d the 
minutes it took me to find it so here it is.

ALBUM:MANE ATTRACTION


Gtr I (E A D G B E) - 'Guitar I'
Gtr II (E A D G B E) - 'Guitar II'
 Intro
  Moderate Rock Q=120
 4/4
  Gtr I
  H    Q  Q     a W          +H     Q  Q    W          +H      Q  Q
|------------||------------|--------------|----------|-----------------|
|------------||------------|--------------|----------|-----------------|
|------------||------------|--------------|----------|-----------------|
|---------4--||-2h4--------|-(4)-------2--|----------|------------2----|
|------4-----||------------|--------4-----|-2--------|-(2)----/4-------|
|------------||------------|--------------|----------|-----------------|


                             B5   E5VII
  Q  Q  H      +H     H      H    H      +W
|------------|-------------|-----------|--------||
|------------|-------------|-----------|--------||
|----2-------|-------------|-4----9----|-(9)----||
|-4-----2----|-(2)---------|-4----9----|-(9)----||
|------------|--------0----|-2----7----|-(7)----||
|------------|-------------|-----------|--------||


 Pre-Verse
  Fast Rock Q=200
  +W           +W           +W           +W
|------------|------------|------------|--------|
|------------|------------|------------|--------|
|-(9)--------|-(9)--------|-(9)--------|-(9)----|
|-(9)--------|-(9)--------|-(9)--------|-(9)----|
|-(7)--------|-(7)--------|-(7)--------|-(7)----|
|------------|------------|------------|--------|


  +W           +W           +W           +W
|------------|------------|------------|--------|
|------------|------------|------------|--------|
|-(9)--------|-(9)--------|-(9)--------|-(9)----|
|-(9)--------|-(9)--------|-(9)--------|-(9)----|
|-(7)--------|-(7)--------|-(7)--------|-(7)----|
|------------|------------|------------|--------|


  F#sus4
  +W           +W           +W            W
|------------|------------|------------|--------|
|------------|------------|------------|--------|
|-(9)--------|-(9)--------|-(9)--------|--------|
|-(9)--------|-(9)--------|-(9)--------|--------|
|-(7)--------|-(7)--------|-(7)--------|--------|
|------------|------------|------------|--------|
|
| Gtr II
|  <                         <
|  W           +W            W           +W
|--2---------|-(2)--------|--2---------|-(2)----|
|--2---------|-(2)--------|--2---------|-(2)----|
|--4---------|-(4)--------|--4---------|-(4)----|
|------------|------------|------------|--------|
|------------|------------|------------|--------|
|------------|------------|------------|--------|


  F#5
  <
  W          +W           +W            +W
|----------|------------|------------|---------|
|----------|------------|------------|---------|
|----------|------------|------------|---------|
|-4--------|-(4)--------|-(4)--------|--(4)----|
|-4--------|-(4)--------|-(4)--------|--(4)----|
|-2--------|-(2)--------|-(2)--------|--(2)----|
|
| W           W            W            +W
|----------|------------|-14---------|-(14)----|
|----------|------------|-14---------|-(14)----|
|----------|------------|------------|---------|
|----------|------------|------------|---------|
|----------|------------|------------|---------|
|----------|------------|------------|---------|


    <                                     <
    W            +W           W          +W
|-------------|-------------|----------|--------|
|---5---------|--(5)--------|-5--------|-(5)----|
|---4---------|--(4)--------|-4--------|-(4)----|
|-------------|-------------|----------|--------|
|-------------|-------------|----------|--------|
|-------------|-------------|----------|--------|
|
|  +W            +W           W          +W
|-(14)--------|-(14)--------|-9--------|-(9)----|
|-(14)--------|-(14)--------|-7--------|-(7)----|
|-------------|-------------|----------|--------|
|-------------|-------------|----------|--------|
|-------------|-------------|----------|--------|
|-------------|-------------|----------|--------|


   <
   W           +H     +Q.   S S    Q     Q    H       W
|------------|--------------x-x-|-14--(14)-------|-------------|
|------------|--------------x-x-|-14--(14)-------|-------------|
|------------|------------------|------------------|-----------|
|--4---------|-(4)----(4)-------|------------------|-----------|
|--4---------|-(4)----(4)-------|------------------|-----------|
|--2---------|-(2)----(2)-------|------------------|-----------|
|
|                                                     3
| +W           +W                 +W                 +W
|-(9)--------|-(9)--------------|-(9)--------------|-(9)----||
|-(7)--------|-(7)--------------|-(7)--------------|-(7)----||
|------------|------------------|------------------|--------||
|------------|------------------|------------------|--------||
|------------|------------------|------------------|--------||
|------------|------------------|------------------|--------||


 Verse 1
  F#5
   W             H    Q  E a E   Q  Q  Q  Q
|--------------|---------------|-------------|
|--------------|-----------1s2-|-2--5--4--2--|
|--------------|-----------1s2-|-2--4--4--2--|
|--------------|---------------|-------------|
|--------------|---------------|-------------|
|--------------|---------------|-------------|
|
| +H      H      W               W
|-(9)---------|---------------|----------------|
|-(7)---------|---------------|----------------|
|--------------|---------------|---------------|
|--------------|---------------|---------------|
|--------------|---------------|---------------|
|--------------|---------------|---------------|


  Q  E E +Q.   E   H    Q  E E   Q  Q  Q  E E
|----------------|---------x-x-|----x--x--x-x-|
|-5--4-2-(2)-----|---------x-x-|----x--x--x-x-|
|-4--4-2-(2)-----|---------x-x-|----x--x--x-x-|
|----------------|---------x-x-|----x--x--x-x-|
|----------------|-------------|--------------|
|----------------|-------------|--------------|


  E  Q.        +Q    Q     E  Q.    Q.   E   Q  Q  H
|-x---------------------|------------------|-x------------|
|-x-16pb17====(16)--16r=|=16-14------------|-x------------|
|-x-16--------(16)--16--|-16-14------------|-x------------|
|-x---------------------|----------16-----|-x-------------|
|-----------------------|------------------|--------------|
|-----------------------|------------------|--------------|


                PM|   PM  PM  PM
  H    Q  E E   e e E e E e E e   E e E   E +Q.   E
|-------------|-----------------|-------------------|
|-------------|-----------------|-------------------|
|-------------|-----------------|-------------------|
|-------------|-----2-----------|-------------------|
|-------------|---------4---3---|-2-----------------|
|-----------2-|-2-2---2---2---2-|---2-5b6-2-(2)-----|


                                 F#7
                                 |-3-|     |-3-|
  Q  E E Q  E E   Q  E E Q  Q    E E E  Q  E E E  Q      Q   E  E  +H
|----x-x----x-x-|----x-x-------|-x-x-x--9--x-x-x--9--|------------------------|
|----x-x----x-x-|----x-x-------|-x-x-x-11--x-x-x-11--|---------10-(10)--------|
|----x-x----x-x-|----x-x-------|-x-x-x--9--x-x-x--9--|------11--9--(9)--------|
|----x-x----x-x-|----x-x-------|-x-x-x-11--x-x-x-11--|-/11--------------------|
|----x-x----x-x-|----x-x----9--|---------------------|------------------------|
|----x-x----x-x-|----x-x-------|---------------------|------------------------|


 Pre-Chorus
  E5(type 2)
  W          +H.      Q
|----------|--------------|
|----------|--------------|
|-9--------|-(9)------9s==|
|-9--------|-(9)------9s==|
|-7--------|-(7)------7s==|
|-0--------|-(0)----------|


  B5             F#5             E5(type 2)
                          ~
  H    +Q.   E   +E  Q.   h      W
|--------------|---------------|------|
|--------------|---------------|------|
|-4----(4)-----|---------------|-9----|
|-4----(4)-----|----------9----|-9----|
|-2----(2)S==9-|-(9)-9---------|-7----|
|--------------|---------------|-0----|


               B5
  +W           W          +W
|------------|----------|--------|
|------------|----------|--------|
|-(9)--------|-4--------|-(4)----|
|-(9)--------|-4--------|-(4)----|
|-(7)--------|-2--------|-(2)----|
|-(0)--------|----------|--------|


  C#5
  W          +W
|----------|--------||
|----------|--------||
|-6--------|-(6)----||
|-6--------|-(6)----||
|-4--------|-(4)----||
|----------|--------||


 Chorus
  D5         A5               E5open     F#5
  H    +Q.   E   +W           H    +Q.   E   +H.      +E  E
|--------------|------------|--------------|-----------------|
|-3----(3)-----|------------|-5----(5)---7-|-(7)------(7)----|
|-2----(2)---2-|-(2)--------|-4----(4)---6-|-(6)------(6)----|
|-0----(0)---2-|-(2)--------|-2----(2)---4-|-(4)------(4)----|
|-0----(0)---0-|-(0)--------|--------------|-----------------|
|--------------|------------|-0----(0)-----|-----------------|


  D5         A5
                              6
  H    +Q.   E   +W           W           +E  E Q  H
|--------------|------------|-----------|---------------||
|-3----(3)-----|------------|-----------|---------------||
|-2----(2)---2-|-(2)--------|-----------|---------------||
|-0----(0)---2-|-(2)--------|-----------|---------------||
|------------0-|-(0)--------|-----------|---------------||
|--------------|------------|-0---------|-(x)-----------||


 Pre-Verse
  Bsus4/F#
  <           >           <           >
  W          +W           W          +W
|-2--------|-(2)--------|-2--------|-(2)----|
|-5--------|-(5)--------|-5--------|-(5)----|
|-4--------|-(4)--------|-4--------|-(4)----|
|----------|------------|----------|--------|
|----------|------------|----------|--------|
|----------|------------|----------|--------|


  F#5
  <
  W          +W           +W           +W
|----------|------------|------------|--------||
|----------|------------|------------|--------||
|----------|------------|------------|--------||
|-4--------|-(4)--------|-(4)--------|-(4)----||
|-4--------|-(4)--------|-(4)--------|-(4)----||
|-2--------|-(2)--------|-(2)--------|-(2)----||


 Verse 2
  F#5
  W          W           a  a E E  Q  E Q  E   Q  E   +E  +H
|----------|----------|-------9-9-----------|----------------------|
|----------|----------|----10--------------7-|---------------------|
|----------|----------|-11-----------------6-|----8b9r(8)-(8)------|
|----------|----------|----------------------|---------------------|
|----------|----------|---------------7h9----|---------------------|
|----------|----------|----------------------|---------------------|


                     <   <   <
  +H       Q  Q    E E E E E E Q
|----------------|----------------|
|----------------|---7------------|
|-(8)b9----6-----|----------------|
|----------------|-------9---7----|
|----------------|----------------|
|----------------|----------------|


  Q  E     +E  +Q   E     +E    +Q   E    +E  +Q.   +E
|-----------------------------|-----------------------------|
|----9pb10r(9)-(9)------------|-----------------------------|
|-------------------9pb11r(9)-|-(9)--4pb6r(4)-(4)---(4)b6r==|
|-----------------------------|-----------------------------|
|-----------------------------|-----------------------------|
|-----------------------------|-----------------------------|


   >
                           |--3--|  |--3--|    |--3--|
  +W           W           Q  Q  Q  Q  Q  Q    Q  Q  Q  H
|------------|----------|-------------------|----------------|
|------------|----------|-15p12h15p12h15p12h|=15p12h15p12----|
|-(4)--------|----------|-------------------|----------------|
|------------|----------|-------------------|----------------|
|------------|----------|-------------------|----------------|
|------------|----------|-------------------|----------------|


  W          W           W               +H.      Q
|----------|----------|---------------|-------------------|
|----------|----------|-19------------|-(19)--------------|
|----------|----------|-18pb20--------|-(18)--------------|
|----------|----------|---------------|-------------------|
|----------|----------|---------------|-------------------|
|----------|----------|---------------|-----------x-------|


 Pre-Chorus
  E5                       B5
  W          +H.      Q    H    +Q.    E
|----------|-------------|---------------|
|----------|-------------|---------------|
|-9--------|-(9)------9s=|=4----(4)------|
|-9--------|-(9)------9S=|=4----(4)------|
|-7--------|-(7)------7S=|=2----(2)/---9-|
|-0--------|-(0)---------|---------------|


  F#5             E5                      B5
           ~
  +E  Q.   H      W          +W           W
|---------------|----------|------------|------|
|---------------|----------|------------|------|
|---------------|-9--------|-(9)--------|-4----|
|----------9----|-9--------|-(9)--------|-4----|
|-(9)-9---------|-7--------|-(7)--------|-2----|
|---------------|-0--------|-(0)--------|------|


               C#5
  +W           W          +H     Q   Q
|------------|----------|-------------------|
|------------|----------|-------------------|
|-(4)--------|-6--------|-(6)---------------|
|-(4)--------|-6--------|-(6)---------------|
|-(2)--------|-4--------|-(4)----x----------|
|------------|----------|--------x--x-------|


 Chorus
  D5         A5
  H    +Q.   E   +W
|--------------|--------|
|-3----(3)-----|--------|
|-2----(2)---2-|-(2)----|
|-0----(0)---2-|-(2)----|
|-0----(0)---0-|-(0)----|
|--------------|--------|


  E5         F#5                   D5         A5
  H    +Q.   E   +H.      +E   E   H    +Q.   E
|--------------|-----------------|----------------|
|-5----(5)---7-|-(7)------(7)---|-3----(3)--------|
|-4----(4)---6-|-(6)------(6)---|-2----(2)---2----|
|-2----(2)---4-|-(4)------(4)---|-0----(0)---2----|
|--------------|-----------------|------------0---|
|-0----(0)-----|-----------------|----------------|


               E5                               F#5
  +W           W          +H        +H          +W
|------------|----------|---------------------|-----------|
|------------|-3--------|-(3)b4=====(3)b5=====|=(3)b6=====|
|-(2)--------|----------|---------------------|-----------|
|-(2)--------|----------|---------------------|-----------|
|-(0)--------|----------|---------------------|-----------|
|------------|----------|---------------------|-----------|


  +W           +W           +W           +W
|------------|------------|------------|--------|
|-(3)--------|-(3)--------|-(3)--------|-(3)----|
|------------|------------|------------|--------|
|------------|------------|------------|--------|
|------------|------------|------------|--------|
|------------|------------|------------|--------|


                  ~~~~~~~~~~~~~~~
  +H     +H       W          +W
|---------------|----------|--------||
|-(3)r===(3)----|----------|--------||
|---------------|----------|--------||
|---------------|----------|--------||
|---------------|-x--------|-(x)----||
|---------------|-x--------|-(x)----||


 Guitar Solo - Vito Bratta
  F#m
   q   q  q  E  E   E  E E E E E e  S S    q   q  q  E  E
|-----------------|---------------------|-----------------|
|-----10--9----12-|---10---9-9-9-9-12p9-|-----10--9--x-12-|
|-11-----------11-|---11----------------|-11---------x-11-|
|-----------------|---------------------|-----------------|
|-----------------|---------------------|-----------------|
|-----------------|---------------------|-----------------|
|
| Gtr II
|  q   q  q  E  E   q    Q   H             q   q  q  Q
|-----------------|---------------------|-----------------|
|--7---7--7-----7-|-7-------------------|--7---7--7-------|
|-----------------|---------------------|-----------------|
|-----------------|---------------------|-----------------|
|-----------------|---------------------|-----------------|
|-----------------|---------------------|-----------------|


                          E/FEsusE/F# E5/F#  Esus4E/F#
                 |-3--|
  E  E E  E E  E E  E E   q   q  q  E  E   E  E E E +E  E E   E
|-----------------------|----------------|------------------------|
|---10----9----9-9h12p9-|-9--10--9----12-|---10---9-(9)-9-9---9---|
|---11---11---11--------|--------------9-|----9---9-(9)-9-9---9---|
|-----------------------|----------------|------------------------|
|-----------------------|----------------|------------------------|
|-----------------------|----------------|------------------------|
|
|                                                         |--3--|
| q    q    q    Q        q   q  q  Q      Q    q    q    E E   E
|-----------------------|----------------|------------------------|
|-7----7----7-----------|-5---5--5-------|------5----9----5h7p==5-|
|-----------------------|----------------|------------------------|
|-----------------------|----------------|------------------------|
|-----------------------|----------------|------------------------|
|-----------------------|----------------|------------------------|


  E/FEsusE/F# E5/F#  Esus4E/F#
                                  |-3--|
  q   q  q  E  E   E  E E E +E  E E  E E
|----------------|-----------------------|
|-9--10--9----12-|---10---9-(9)-9-9h12p9-|
|--------------9-|----9---9-(9)-9-9------|
|----------------|-----------------------|
|----------------|-----------------------|
|----------------|-----------------------|
|
| q   q  q  Q      q    q    Q    q
|----------------|-----------------------|
|-5---5--5-------|-5----5---------5------|
|----------------|-----------------------|
|----------------|-----------------------|
|----------------|-----------------------|
|----------------|-----------------------|


  F#5
                                |-3-|
  q  q  q  E  E   E E E E +E  E E E E
|----9--7----10-|---9---7-(7)-7-7h9p7--|
|-7-----------7-|---7---7-(7)----------|
|---------------|----------------------|
|---------------|----------------------|
|---------------|----------------------|
|---------------|----------------------|
|
| q  q  q  q      Q   q    H
|---------------|----------------------|
|-7--7--7--7----|-----7----------------|
|---------------|----------------------|
|---------------|----------------------|
|---------------|----------------------|
|---------------|----------------------|


                                |-3-|
  q  q  q  E  E   E E E E +E  E E E E   q  q  q  E  E   E E E E +Q.    E
|----9--7----10-|---9---7-(7)-7-7h9p7-|----9--7----10-|---9---7-(7)--------|
|-7-----------7-|---7---7-(7)---7-----|-7-----------7-|---7---7-(7)--------|
|---------------|---------------------|---------------|--------------------|
|---------------|---------------------|---------------|--------------------|
|---------------|---------------------|---------------|--------------------|
|---------------|---------------------|---------------|--------------------|
|
| q  q  q  q      q   q    Q    q       q  q  q  q      Q   q    H
|---------------|---------------------|---------------|------------------|
|-7--7--7--7----|-7---7---------7-----|-7--7--7--7----|-----7------------|
|---------------|---------------------|---------------|------------------|
|---------------|---------------------|---------------|------------------|
|---------------|---------------------|---------------|------------------|
|---------------|---------------------|---------------|------------------|


                                                     F#°/C
                              <
  |-3-| |-3-| |-3-|           |-3-| |-3-|
  E E E E E E E E E S S S S   E E E E E E Q    Q      E E  E  E  +H
|---------------------------|---------------------||----------------------|
|---------------------------|---------------------||-10---10-10-(10)------|
|-4p2p0h4p2p0h4p2p0h4p3p2p0h|=4p2p0h4p2p0---------||-11---11-11-(11)------|
|---------------------------|---------------------||-10---10-10-(10)------|
|---------------------------|---------------------||----------------------|
|---------------------------|-------------x--/5--||-----------------------|


                                        T      T            T  T
   +Q    E E     +E  E Q       E  +Q    S   S  E Q  E    E  E  E E +H
|---------------------------|-------------------------|---------------------|
|-(10)----7pb8==(7)r7-7b8--|-10-(10)-----------------|----------------------|
|-(11)---------------------|-------------h11---------|----------------------|
|-(10)--7------------------|----------16-----16p2h=4-|----------------------|
|---------------------------|-------------------------|-/4-16S15-3-(3)------|
|---------------------------|-------------------------|---------------------|


  F#°/C
                       T     T     T      T
                       |-3-| |-3-| |-3-|  |-3-|
   Q  E  E  +Q.    E   E E E E E E E E E  E E E
|--------------------|--------------------------|
|-10--x-10-(10)------|-------------------10p5h7-|
|-11--x-11-(11)------|-------------9p4h8--------|
|-10--x-10-(10)------|-------9p4h7--------------|
|-----------------/4-|-9p4h7--------------------|
|--------------------|--------------------------|


   T     T    T    T    T      T    T    T
   |--3--|
   E  E  E E  E E  E E  E   E  E E  E E  E a Q
|-------------------------|-----------------------|
|-14p10-14p7-14p9-14p5-14p|=7-14p3-14p5-14p3s2----|
|-------------------------|-----------------------|
|-------------------------|-----------------------|
|-------------------------|-----------------------|
|-------------------------|-----------------------|


  F#5
   T            T                T            T
   |-3-| |-3-|                         |-3-|  |-3-|
   E E E E E E  E S S S S S S    E S S E E E  E E E Q
|-----------------------------|------------------------|
|-----------------------------|------------------------|
|-11p5p4p2h4h5-11p5p4p2h4h5s8-|-14p8p7p5h7h8-14p8p7p5--|
|-----------------------------|------------------------|
|-----------------------------|------------------------|
|-----------------------------|------------------------|


                        |--3--|
  E E  E E  E E  E E    E  E  E  E  E  H
|--------------------|----------------17----|
|-7---10---13---16---|-19p16----16-16-------|
|---x----x----x----x-|-------17-------17----|
|--------------------|----------------------|
|--------------------|----------------------|
|--------------------|----------------------|


   |--3--|  |--3--|  |--3--|  |--3--|    |--3--|  |--3--|  |--3--|
   E  E  E  E  E  E  E  E  E  E  E  E    E  E  E  E  E  E  E  E  E  Q
|-14-21-14-21-14-16p14-16----16-------|-----------------------------------|
|-------------------------14----14-17-|-14-17----17-----------------------|
|-------------------------------------|-------14----14-16-14-16-----------|
|-------------------------------------|-------------------------14-16-----|
|-------------------------------------|-----------------------------------|
|-------------------------------------|-----------------------------------|


  F#m
   Q  Q  E E Q     E  E E E +Q    Q
|--9-----2-2----|--9--9---5-(5)----------|
|-10-----2-2----|-10-10---7-(7)----------|
|-11-----2-2----|-11-11---6-(6)----------|
|---------------|------------------------|
|---------------|------------------------|
|---------------|------------------------|


  F#5
  |-3-| |-3-|     |-3-|   |-3-| |-3-|    |-3-|
  E E E E E E E E E E E   E E E E E E Q  E E E
|-----------------------|----------------------|
|-6s7-7-7-7-7-7-7-7-7-7-|-7s8-8-8-8-8-8--8-8-8-|
|-----------------------|----------------------|
|-3s4-4-4-4-4-4-4-4-4-4-|-4s5-5-5-5-5-5--5-5-5-|
|-----------------------|----------------------|
|-----------------------|----------------------|


  |-3-| |-3-|     |-3-|   |--3--|  |--3--|      |--3--|
  E E E E E E E E E E E   E  E  E  E  E  E  Q   E  E  E
|-----------------------|---------------------------------|
|-8s9-9-9-9-9-9-9-9-9-9-|-9s10-10-10-10-10-10--10-10-10---|
|-----------------------|---------------------------------|
|-5s6-6-6-6-6-6-6-6-6-6-|-6s=7--7--7--7--7--7---7--7--7---|
|-----------------------|---------------------------------|
|-----------------------|---------------------------------|


                             C#5
  4________________________________________________________
                                           ~
                             |-3-| |-3-|
  W            +W            Q Q Q Q Q Q   H    +E  E Q
|------------|-------------|-------------|-------------------|
|-7----------|-(7)--------|-------------|--------------------|
|------------|-------------|-6-6-6-6-6-6-|-6----(6)----------|
|------------|-------------|-6-6-6-6-6-6-|-6----(6)----------|
|------------|-------------|-4-4-4-4-4-4-|-4----(4)----------|
|------------|-------------|-------------|-------------------|


 Breakdown
  Wx8           Q.   E +Q   Q    W          Q.   E +Q   Q
|------------||----------------|----------|-----------------|
|------------||----------------|----------|-----------------|
|------------||----------------|----------|-----------------|
|------------||----------------|----------|-----------------|
|------------||------0-(0)--3--|-2--------|------0-(0)--2---|
|------------||-2--------------|----------|-2---------------|


  Q  Q  H      Q.   E +Q   Q    W          Q.   E +Q   Q
|------------|----------------|----------|-----------------|
|------------|----------------|----------|-----------------|
|------------|----------------|----------|-----------------|
|------------|----------------|----------|-----------------|
|------------|------0-(0)--3--|-2--------|------0-(0)--2---|
|-2----------|-2--------------|----------|-2---------------|


                                  (E)
    Q  Q  H      Q.   E +Q   Q    W             Q.   E +Q   Q
||-------------|----------------|-------------|-----------------||
||o------------|----------------|-------------|----------------o||
||-------------|----------------|-------------|-----------------||
||-------------|----------------|-------------|-----------------||
||o------------|------0-(0)--3--|-2-----------|------0-(0)--2--o||
||--2----------|-2--------------|-------------|-2---------------||
|
|   Gtr II
|   W            Q.   E +Q   Q    W             Q.   E +Q   Q
||-------------|----------------|-------------|-----------------||
||o------------|------2-(2)--5--|-4tr5--------|------2-(2)--4--o||
||-------------|-2--------------|-------------|-2---------------||
||-------------|----------------|-------------|-----------------||
||o------------|----------------|-------------|----------------o||
||-------------|----------------|-------------|-----------------||


  Q  Q  H        Q.    E  +Q    Q     Q.    E  +Q    Q     Q.    E  +Q    Q
|------------||--------------------|--------------------|---------------------|
|------------||--------------------|--------------------|---------------------|
|------------||--------------------|--------------------|---------------------|
|------------||--------------------|--------------------|--2-----3--(3)---4---|
|------------||--------0--(0)---3--|--2-----3--(3)---4--|---------------------|
|-2----------||--2-----------------|--------------------|---------------------|
|
| Q  Q  H        Q.    E  +Q    Q     Q.    E  +Q    Q     Q.    E  +Q    Q
|------------||--------------------|--------------------|---------------------|
|------------||--------------------|----------------14--|-17----18-(18)--19---|
|-2----------||-------14-(14)--17--|-16----17-(17)------|---------------------|
|------------||-16-----------------|--------------------|---------------------|
|------------||--------------------|--------------------|---------------------|
|------------||--------------------|--------------------|---------------------|


   Q  Q  H       Q.    E  +Q    Q     Q.    E  +Q    Q     Q.    E   Q    Q
|-------------|--------------------|--------------------|---------------------||
|-------------|--------------------|--------------------|---------------------||
|-------------|--------------------|--------------------|---------------------||
|-------------|--------------------|--------------------|---------------------||
|--2----------|--------0--(0)---3--|--2-----3--(3)---4--|--0-----2---2----4---||
|-------------|--2-----------------|--------------------|---------------------||
|
|  Q  Q  H       Q.    E  +Q    Q     Q.    E  +Q    Q     Q.    E  +Q    Q
|-------------|--------------------|--------------------|---------------------||
|-------------|--------------------|----------------16--|----------------14---||
|-16----------|-------14-(14)--17--|-16----17-(17)------|-14----16-(16)-------||
|-------------|-16-----------------|--------------------|---------------------||
|-------------|--------------------|--------------------|---------------------||
|-------------|--------------------|--------------------|---------------------||


 Interlude
  E5
  W          +W           +W           +W
|----------|------------|------------|--------|
|----------|------------|------------|--------|
|----------|------------|------------|--------|
|-2--------|-(2)--------|-(2)--------|-(2)----|
|-2--------|-(2)--------|-(2)--------|-(2)----|
|-0--------|-(0)--------|-(0)--------|-(0)----|


  +W           +W           +W           +W
|------------|------------|------------|--------|
|------------|------------|------------|--------|
|------------|------------|------------|--------|
|-(2)--------|-(2)--------|-(2)--------|-(2)----|
|-(2)--------|-(2)--------|-(2)--------|-(2)----|
|-(0)--------|-(0)--------|-(0)--------|-(0)----|


  +W           +W           +W           +W
|------------|------------|------------|--------||
|------------|------------|------------|--------||
|------------|------------|------------|--------||
|-(2)--------|-(2)--------|-(2)--------|-(2)----||
|-(2)--------|-(2)--------|-(2)--------|-(2)----||
|-(0)--------|-(0)--------|-(0)--------|-(0)----||


  Wx14
|---------||
|---------||
|---------||
|---------||
|---------||
|---------||


 Verse 3
  F#
  W          W
|----------|------|
|----------|------|
|----------|------|
|----------|------|
|----------|------|
|----------|------|


                              >
  |-3-| |-3-|
  Q Q Q Q Q Q   Q  Q  H      +W           +E  S S Q  E E Q
|---9p7p5s4h5-|-7--4-------|------------|-------------------|
|-------------|-------5----|-(5)--------|-(5)-x--------x----|
|-------------|------------|------------|-------x-----------|
|-------------|------------|------------|---------x---------|
|-------------|------------|------------|-------------------|
|-------------|------------|------------|-------------------|


                                      F#5
              |-3-|
  Q  Q     Q  E E E   H    +E  Q.     W          +H.      Q
|-------------------|---------------|----------|-------------|
|-------------------|---------------|----------|-------------|
|----4pb6r=4p=2h4p2s|=1----(1)------|----------|-------------|
|-------------------|----------2----|-4--------|-(4)---------|
|-------------------|---------------|-4--------|-(4)---------|
|-------------------|---------------|----------|-------------|


   W               +W            +W            +H.      E  E
|-19b20=========|=(19)--------|-(19)r=======|=(19)------------|
|---------------|-------------|-------------|-----------------|
|---------------|-------------|-------------|-------------14--|
|---------------|-------------|-------------|-----------------|
|---------------|-------------|-------------|-----------------|
|---------------|-------------|-------------|-----------------|


                     ~~~
   +H.       E  E    W           W           +H     H
|-----------------|-----------|-----------|--------------|
|-----------------|-----------|-----------|--------------|
|-(14)S=====16-14-|-13S=======|=11--------|-(11)---------|
|-----------------|-----------|-----------|--------------|
|-----------------|-----------|-----------|--------------|
|-----------------|-----------|-----------|--------------|


  |-3-| |-3-|   |-3-|
  Q Q Q Q Q Q   Q Q Q Q  +Q     a W          +W
|-2-4-5-4-2---|---------------|------------|--------|
|-----------2h|=3h5p3---------|------------|--------|
|-------------|-------2--(2)--|------------|--------|
|-------------|---------------|-2s4--------|-(4)----|
|-------------|---------------|------------|--------|
|-------------|---------------|------------|--------|


  a a  Q   Q   Q   Q     Q   E  E  +H
|-----21--20--19------|-----------------------|
|---x-------------21--|-20--19-21-(21)b24=====|
|-x-------------------|-----------------------|
|---------------------|-----------------------|
|---------------------|-----------------------|
|---------------------|-----------------------|


   +W            +H.      E  E
|-------------|----------------------|
|-(21)--------|-(21)--------17pb19===|
|-------------|----------------------|
|-------------|----------------------|
|-------------|----------------------|
|-------------|----------------------|





Comments


Popular White Lion tabs & chords
It¹S Over Chords
Radar Love Tabs
Tell Death Do Us Part Tabs
Till Death Do Us Part 1 Tabs
When The Children Cry Tabs
When The Children Cry 3 Tabs
When The Children Cry Pt Tabs
You're All I Need 1 Tabs
Youe All I Need Tabs
When The Children Cry Ukulele


Song lyrics



↑ Back to top | Tablatures and chords are parodies/interpretations of the original songs. You may use it for private study, scholarship, research or language learning purposes only
© 2014 AZChords.com Contact us | Privacy policy | DMCA | Add/correct tabs | Request tabs | Top 50 tabs