» » »

Broken Heart Tabs (ver.2)

Artists:  A B C D E F G H I J K L M N O P Q R S T U V W X Y Z # 

Broken Heart Tabs (ver.2)

White Lion
Rating:
5/5 (1 vote)

Hard to play? Try these video lessons and learn fast.
                heres the rhythm of the song. an excellent white lion song
     intro:
e|-----------------2------2--------------------------------------------------------------|
B|-----0--0--1h2-----1h2-----1h2---0-----------------------------------------------------|
G|---------------------------------------------------------------------------------------|
D|---------------------------------------------------------------------------------------|
A|---------------------------------------------------------------------------------------|
E|---------------------------------------------------------------------------------------|

e|-------3----------2--------2------------|
B|----------0--1h2-----1h2-------1h2---0--|
G|----------------------------------------|
D|----------------------------------------|
A|----------------------------------------|
E|----------------------------------------|


rhythm:

   verse:
        Bm                A
e|--------2---------------------------------------------------------------------------|
B|--------3-----strum------------2----------------------------------------------------|
G|--------4---5times-------------2----------------------------------------------------|
D|--------4----------------------2----------------------------------------------------|
A|--------2---------------------------------------------------------------------------|
E|--------2---------------------------------------------------------------------------|
 here i stand all alone .......

bridge:
e|--------------------------------------------------------------------------------|
B|---------------------------2----------------------------------------------------|
G|------5---------4----------2----------------------------------------------------|
D|------5---------4----------2----------------------------------------------------|
A|------3---------2---------------------------------------------------------------|
E|--------------------------------------------------------------------------------|
 i knew that life would be much better...
e|------------------------------------------------------------------------------|
B|------------------------------------------------------------------------------|
G|------------------------------------------------------------------------------|
D|------4-----------------------------------------------------------------------|
A|------4-----------------------------------------------------------------------|
E|------2-----------------------------------------------------------------------|
 and baby i know

 chorus
e|--------------------------------------------------------------------------------|
B|--------------------------------------------------------------------------------|
G|------4----------5---------7----------------------------------------------------|
D|------4----------5---------7----------------------------------------------------|
A|------2----------3---------5----------------------------------------------------|
E|--------------------------------------------------------------------------------|
1) there is life   2) you can find
e|-------------------------------------------------------------------------------|
B|-----------------2-------------------------------------------------------------|
G|------4----------2-------------------------------------------------------------|
D|------4----------2-------------------------------------------------------------|
A|------2------------------------------------------------------------------------|
E|-------------------------------------------------------------------------------|
1) even after a broken heart  2)the pain from a broken heart


this is my first tab .iam not sure of the solo . any suggestions .post it on my email 

| /  slide up
|   slide down
| h  hammer-on
| p  pull-off
| ~  vibrato
| +  harmonic
| x  Mute note
===============================================================================
            
Hard to play? Try these video lessons and learn fast. | Correct




comments powered by Disqus
↑ Back to top | Tablatures and chords are parodies/interpretations of the original songs. You may use it for private study, scholarship, research or language learning purposes only