» » »

Secret Valentine Bass tabs (ver.4)

Artists:  A B C D E F G H I J K L M N O P Q R S T U V W X Y Z # 

Secret Valentine Bass tabs (ver.4)

We The Kings
Rating:
0/5 (0 votes)

Tabs too difficult? Try these video lessons and learn fast.
                We The Kings
Secret Valentine

This is 100% correct so vote it voters!!!!

Bass Tab:

Tuning: Standard EADG


Intro:
G|---------------------------------|
D|---------------------------------|
A|-4-4-4-4---------1-1-1-1---------|
E|---------4-4-4-4---------2-2-2-2-|


Verses:
G|---------------------------------|
D|---------------------------------|
A|-4-4-4-4-------------------------| x2
E|---------4-4-4-4-2-2-2-2-2-2-2-2-|


Refrain:
G|----------|
D|----------|
A|----------|
E|-2----4---|


Chorus:
G|---------------------------------|
D|---------------------------------|
A|-4-4-4-4---------1-1-1-1---------| x2
E|---------4-4-4-4---------2-2-2-2-|


Bridge:
G|------------------------------------|
D|------------------------------------|
A|-1-1-1-1--0-0-0-0-------------------|
E|-------------------4-4-4-4--3-3-3-3-|

G|---------------------------------------------|
D|---------------------------------------------|
A|-----------------6-6-6-6-9-9-9-9-11-11-11-11-|
E|-2-2-2-2-4-4-4-4-----------------------------|
            
Tabs too difficult? Try these video lessons and learn fast.


comments powered by Disqus
↑ Back to top | Tablatures and chords are parodies/interpretations of the original songs. You may use it for private study, scholarship, research or language learning purposes only